Запрещают песни Цоя, Агата Кристи, Наутилус Помпилиус, Зиверт
Отвечаем в отдельной теме

Элизиум - Словно Будда, аккорды

Прокрутка
Тональность
Шрифт
100
Вступление:
              C5     A5     F5          G5
E|-------|---------|---|---------|-----------|
B|-------|---------|---|---------|-----------|
G|-------|---------|---|---------|-----------|x2
D|-------|---------|---|---------|---5-------|
A|-2-3-5-|-7-8-7-5-|-7-|-0-5-7-8-|-8---8-7-5-|
E|-------|---------|---|---------|-----------|

1 Куплет:
C
Я не забуду никогда 
Am
эти горы и леса,
D            G 
эти реки и озера,
Em
Но все же я уйду туда,
Am
где отсутствуют года,
F                    G
где нет ??? беда и горе.

C
Я так устал от городов,
Am
от машин и поездов,
D            G 
от промышленных ???,
Em
от человеческих страстей,
Am
негативных новостей,
F                  G
и отсутствия таланта.

Припев::

Бас для припева (арпеджио):
      c            Am           F            G           Em            D
G|---------|  |---------|  |---------|  |---------|  |---------|  |-----2---|
D|---2-5-2-|x2|-----2---|x2|---------|x2|---------|x2|---------|x2|---3---3-|x2
A|-3-------|  |-0-3---3-|  |---0-3-0-|  |---2-5-2-|  |-----2---|  |-5-------|
E|---------|  |---------|  |-1-------|  |-3-------|  |-0-3---3-|  |---------|

C5              A5
Я ухожу от Вас туда,
             F5        G5
Где будет праздник и Веселье,
C5                  A5
Где не найдет меня беда,
        F5             G5
И стороной пройдет похмелье!

Am        G   F          G   
Словно Будда, я ухожу отсюда,
Am      G       F            G
Золотое облако нирваны и блаженства,
A5      G5    F5             G5
Я стану выше, умней добрей и чище
A5         G5    F5           G5
в золотом облаке нирваны и блаженства.

2 Куплет:
C
Как уходящая мечта,
Am
Как любовь и красота, 
D                  G
Не вернусь сюда я боле,
Em
Я стану небом и Землей,
Am
Стану Солнцем и Луной,
F                 G
Стану сахаром и солью

C
Как одинокая звезда,
Am
буду я светить всегда,
D            G 
тем, кто ищет просветленья
Em
Я стану сушей и водой,
Am
Стану птицей и змеей,
F                    G
Стану светом стану тенью.

Припев:
C5              A5
Я ухожу от Вас туда,
             F5        G5
Где будет праздник и Веселье,
C5                  A5
Где не найдет меня беда,
        F5             G5
И стороной пройдет похмелье!

Am        G   F          G   
Словно Будда, я ухожу отсюда,
Am      G       F            G
Золотое облако нирваны и блаженства,
A5      G5    F5             G5
Я стану выше, умней добрей и чище
A5         G5    F5           G5
в золотом облаке нирваны и блаженства.
 
 

Видео