Элизиум - Я не знаю, аккорды

Прокрутка
Тональность
Шрифт
100
Вступление:
     G        C            D       G       C        D
E ---------|-------------------|---------|-------------|
B ---------|-------------------|---------|-------------|
G -------0-|-------------------|-------0-|-------------|
D -----0---|-------------------|-----0---|-------------|
A ---2-----|-2-3-2-3-4-5-3-2-0-|---2-----|-2-3-2-3-4-5-|
E -3-------|-------------------|-3-------|-------------|

  G                C           D
Знойный асфальт, в тени акаций я шагаю,
Ноги мои уносят вдаль меня,
Не при делах, смотрю по сторонам, гуляю,
Льет градом пот, но это все фигня.

Припев:
G
Я не знаю,
  C         Dm
Зачем и почему гуляю,
Знаю,
Я только лишь одно.

Я не знаю,
Зачем и почему бухаю,
Знаю,
Я счатье, вот оно!


Знойное лето, асфальт и небо мутят воду,
Руки мои, зашкерелись в карман.
Я извлеку, пяти рублевую банкноту,
И прикуплю, себе кваску стакан.

Припев

Проигрыш: (На басу)
E -----------------|-----------|
B -----------------|-----------|
G -----------------|-----------|
D -------5-2-------|-------5-4-|
A ---2-5-----5-2---|---4-7-----|
E -3-------------3-|-5---------|

Мокрый асфальт, льет небо крокодильи слезы,
Вымок насквозь и до костей промок.
Ну ни чего, зато свежее будут розы,
Шнапсу глотну, еще на посошок.

Припев
 
 
Свернуть Распечатать

Аппликатуры аккордов

Аккорд GАккорд CАккорд DАккорд EАккорд BАккорд AАккорд Dm
NoThanksNoThanks
автор подбора аккордов
3,001 0 21.06.2011