Elton John - Candle In The Wind, аккорды

Прокрутка
Тональность
Шрифт
100
III--------------------------------|
(1) 1 2 3 4 1 2 3 4 1 2 3 4 1 2 3 4
e-|-0---0---0-----0-|------------0----|-----5---5---6-5-|---3---5---3-5-3-|
B-|-------------3---|---------1-3--1--|-----------------|-----------------|
G-|-----------------|-----------------|-----------------|-----------------|
D-|-2-------2-------|-2-------2-------|-3-------3-------|-----------------|
A-|-3-------3-------|-3-------3-------|-3-------3-------|-3-------3-------|
E-|-----------------|-----------------|-----------------|-----------------|
 

(5) 1 2 3 4 1 2 3 4 1 2 3 4 1 2 3 4
e-|-3---------------|-1---0-----------|-----------------|--------------01-|
B-|-----1-1---1-----|-------3-----1---|-----------------|-----------1-3---|
G-|-----------------|---------------2-|-----------------|---------2-------|
D-|-----------------|-----------------|-----------------|-----------------|
A-|-3-------3-------|-3-------3-------|-3-------3-----0-|-----3-----------|
E-|-----------------|-----------------|-------------1---|---1-------------|

III--------------------------------|
(9) 1 2 3 4 1 2 3 4 1 2 3 4 1 2 3 4
e-|-3---3-----------|-------------0---|-----5-5-----6---|-5-3-3-5-3---3-3-|
B-|-----------------|---------1-3---1-|-----------------|-----------------|
G-|-----------------|-----------------|-----------------|-----------------|
D-|-----------------|-----------------|-----------------|-----------------|
A-|-3-------3-------|-3-------3-------|-3-------3-------|-3-------3-------|
E-|-----------------|-----------------|-----------------|-----------------|

(13)1 2 3 4 1 2 3 4 1 2 3 4 1 2 3 4
e-|-----------0-----|-1---0-------0---|-----------------|-------------0-1-|
B-|-----1-3---------|-------3---------|-----------------|-----------------|
G-|-----------------|---------------2-|-----------------|-----------------|
D-|-----------------|-----------------|-----------------|-----------------|
A-|-3-------3-------|-3-------3-------|-3-------3-----3-|-------3-----3---|
E-|-----------------|-----------------|-------------1---|-----1-----1-----|

III---------------------------------------------|
(17)1 2 3 4 1 2 3 4 1 2 3 4 1 2 3 4
e-|-3-----3-3-------|-3-3-----3-------|-3---3-3---5-----|-------------0-1-|
B-|-3-----3-3-----5-|-3-3-----3---5-6-|-5---5-5-----1---|-----------------|
G-|-4-----4-4-------|-4-4-----4-------|-5---5-5-----2---|-----------------|
D-|-----------------|-----------------|-----------------|-----------------|
A-|-----------------|-----------------|-3---------------|-----------------|
E-|-3-------3-------|-3-------3-------|-----------------|-1-------1-------|

III--------------|
(21)1 2 3 4 1 2 3 4 1 2 3 4 1 2 3 4
e-|-3-------3-3-5-3-|---1---0---1-----|-0---------------|---------3---3---|
B-|-5-------5-5-5-5-|-----------------|-0---3-3---------|-----------------|
G-|-5-------5-5-5-5-|-----------------|-----0-0---------|-0---0-----------|
D-|-----------------|-----------------|-----------------|---0---0---------|
A-|-3-------3-------|-3-------3-------|-----------------|-----------------|
E-|-----------------|-----------------|-3-------3-------|----------3------|

(25)1 2 3 4 1 2 3 4 1 2 3 4 1 2 3 4
e-|-5-5---5---5-7---|-8---7---5-5-5-5-|-------0---------|-0-0-0-1-----3---|
B-|-6-6---6---------|---------6-6-6-6-|-----1---------1-|-1-1-1-1---------|
G-|-5-5---5---------|---------5-5-5-5-|-----------------|-----------------|
D-|-----------------|-----------------|-----------------|-----------------|
A-|-----------------|-----------------|-0-------0-------|-----------------|
E-|-0-------0-------|-0-------0-------|-----------------|-3-------3-------|

1 2 3 4 1 2 3 4 1 2 3 4 1 2 3 4
e-|-0---------------|-----------------|-----------------|-----------------|
B-|-0---3-3---------|-----1---1-3-----|-----------------|-----------------|
G-|---------------0-|-2-----------2---|-----------------|-----------------|
D-|-----------------|-0-------0-------|-----------------|-----------------|
A-|-----------------|-----------------|-----------------|-----------------|
E-|-3-------3-------|-----------------|-----------------|-----------------|
 
 

Видео