Запрещают песни Цоя, Агата Кристи, Наутилус Помпилиус, Зиверт
Отвечаем в отдельной теме

Elvis Presley - Just Because, аккорды

Прокрутка
Тональность
Шрифт
100
Solo: 
|-----------------------------||----------8-------------------|
|-----------------------------||----------8--------------10---|
|-----------------------------||----------9-------------------|
|-----------------------------||------------------x-----------|
|-----------------------------||------------------------------|
|-----------3---5---7---------||---8--------------------------|

|----8-----------------8-------|---------8--------------------|
|----8-------10-------(8)------|---------------------8--------|
|----9---------------------9---|---------9-----------------9--|
|------------------------------|------------------------------|
|------------------------------|------------------------------|
|------------------------------|---8--------------------------|

|---10-------------------------|---------8---------------------|
|------------------------------|---------8------------10-------|
|------------------------------|---------9---------------------|
|------------------------------|--------10-----------------10--|
|------------------------------|----------------x--------------|
|-----------3----5----7--------|---8---------------------------|

|---8----------------8----8/x------|-----------10-----------------|
|---8------10------------10/x------|-----------10-----------------|
|---9------------------------------|-----------10--------10-------|
|----------------------------------|--------------------------9---|
|----------------------------------|-----------------10-----------|
|----------------------------------|----10------------------------|
 
 

Видео