Запрещают песни Цоя, Агата Кристи, Наутилус Помпилиус, Зиверт
Отвечаем в отдельной теме

Elvis Presley - Suspicious Minds, аккорды

Прокрутка
Тональность
Шрифт
100
VERSE:
E----3-333-3-333--------------------
A-------------------3-333-3-333-----
D-----------------------------------
G-----------------------------------
We're caught in a trap; I can't walk out

E----------------------------3-333--
A---5-555---5-555----3-333----------
D-----------------------------------
G-----------------------------------
because I love you too much, baby

E----3-333---3-333------------------
A--------------------3-333---3-333--
D-----------------------------------
G-----------------------------------
Why can't you see, what you're doing to me,

E-----------------------------------
A---5-555----3-333-------5-555------
D-----------------------------------
G-----------------------------------
when you don't believe a word I say?

CHORUS:
E----------3-333----------------------------
A---3-333-----------2-222----2-222----3---5-
D-------------------------------------------
G-------------------------------------------
We can't go on together, with Suspicious Minds

E---0-000--------------------------------
A-----------2-222----3-333-------5-555---
D----------------------------------------
G----------------------------------------
and we can't build our dreams, on Suspicious Minds.

(like the 1st verse)
So, if an old friend I know, drops by to say hello,
would I still see suspicion in your eyes?
Here we go again, asking where I've been.
You can see these tears are real I'm crying.

(like 1sy chorus)
We can't go on together, with Suspicious Minds;
and we can't build our dreams, on Suspicious Minds...

BRIGE:
E---0-----------------------------
A-----------2----3---------------
D----------------------------------
G----------------------------------
Oh, let our love survive,

E—--3------------------------------
A-----------5-------------------
D----------------------------------
G----------------------------------
I'll dry the tears from your eyes

E---0----------------------------
A-----------2----3---------------
D--------------------------------
G--------------------------------
Let's don't let a good thing die, when honey,

E--------------------3--------3--
A------5-------------------3-----
D--------------------------------
G--------------------------------
you know I've never, lied to you; Mmm, yeah, yeah!

Repeath 1st verse & fade
 
 

Видео