Запрещают песни Цоя, Агата Кристи, Наутилус Помпилиус, Зиверт
Отвечаем в отдельной теме

Elvis Presley - Hound Dog, аккорды

Прокрутка
Тональность
Шрифт
100
Verse:

G------------------------2-5--2-5---------------4-7----------------------
D---2-5--2-5--2-5--2-5--3----3-----2-5---2-5--5-------3-3-2--------------
A--3----3----3----3---------------3----3--------------------5-3----------
E------------------------------------------------------------------------

Outro:

Verse as above until:
G:--4-7
D:-5---
A:-----
E:-----

Where you miss out the last note (when he sings - you aint caught a rabbit)
and stop on 'rabbit' (the B octave), then play:

G:--5-4-2------
D:--------5-2--
A:-----------3-
E:-------------

when/after he sings 'and you ain't no friend of mine'

Order:

Verse 
Verse
Verse
Solo (play over)
Verse
Solo (play over)
Verse
Verse
Outro

And thats the end! Sorry if its bit complicated but it should make sense.