Запрещают песни Цоя, Агата Кристи, Наутилус Помпилиус, Зиверт
Отвечаем в отдельной теме

Elvis Presley - Silver Bells, аккорды

Прокрутка
Тональность
Шрифт
100
Verse one:
e------------------------------------------------------------------------
b------------------------------------------------------------------------
g------------------------14-12--------------12---------------------------
d-15-12------15-12-------------15-12-12-12----15-14----------------------
a------15-12------15-12----------------------------15-14-13-15--13-13-12-
E------------------------------------------------------------------------

Verse two:
e--------------------------------------------------------------------
b--------------------------------------------------------------------
g------------------------14-12--------------12-----------------12----
d-15-12------15-12-------------15-12-12-12----15-14---------------15-
a------15-12------15-12----------------------------15-14-13-15-------
E--------------------------------------------------------------------

Chorus:
e-----------------------------------------------------
b-----------------------------------------------------
g-----------------------------------------------------
d--------------12-14-15------14-14-15-17--15-14-15----
a-12-13-15-----------------------------------------15-
E-----------------------------------------------------

e---------------------------------------------
b---------------------------------------------
g------------------------------------------10-
d-------------12-14-15---14-14-15-17--15-14---
a-12-13-15------------------------------------
E---------------------------------------------
 
 

Видео