Запрещают песни Цоя, Агата Кристи, Наутилус Помпилиус, Зиверт
Отвечаем в отдельной теме

Elvis Presley - Love Me Tender, аккорды

Прокрутка
Тональность
Шрифт
100
Beginning:
e-------------------------------
b----1--0--1--3---3--1--0--0--1-
g--0------------2---------2-----
d-------------------------------
a-------------------------------
e-------------------------------

e-------------------------------
b----1--0--1--3---3--1--0--0--1-
g--0------------2---------2-----
d-------------------------------
a-------------------------------
e-------------------------------
 
Middle:
e--0-0-0---0-0-0---0-------0-
b--------------------3-1-3---
g----------------------------
d----------------------------
a----------------------------
e----------------------------

End:
e--0-0-1-0------------0-----
b----------3---3--1-0---3-1-
g------------2--------------
d---------------------------
a---------------------------
e---------------------------
 
 

Видео