Eminem - Come On Everybody, аккорды

Прокрутка
Тональность
Шрифт
100
------------------------------------------------------|-----------------------
------------------------------------------------------|-----------------------
------------------------------------------------------|-----------------------
------------------------------------------------------|-----------------------
--------------2h4-----------2h4/5---5---5--4h5p4--4--4|------------4-4--------
-2----2----2-------2--2--2----------------------------|--2-2--5-5-------5-5---
"cum on everybody
 
------------------------------------------------------------|
------------------------------------------------------------|
------------------------------------------------------------|
-----------4-4-------------------------------------4-4------|
-2-2--5-5-------5-5------------4-4-------2-2--5-5-------5-5-|
---------------------2-2--5-5-------5-5---------------------|
get down tonight" repeat
 
 
Свернуть Распечатать

Видео