Eminem - Lose yourself, аккорды

Прокрутка
Тональность
Шрифт
100
intro
|-5------5---3-----3---5-----------8--6--5---3-----|
|---6----------5---------6-------------------------|
|-----7----------5---------7-----------------------|
|--------------------------------------------------|
|--------------------------------------------------|
|--------------------------------------------------|

|-5-----5----3-----3---5----------------------------------------|
|---6----------5---------6-------3------3--1--1--------------2--|
|-----7----------5---------7-------3--0---------2------2--3-----|
|-------------------------------------------------3-------------|
|---------------------------------------------------------------|
|---------------------------------------------------------------|


|---------------------------------------------------------------|
|---------------------------------------------------------------|
|----2--2--2--2--2--2--0--0--3--3--3--3--3--3--0----------------|
|----0--0--0--0--0--0--------0--0--0--0--0--0-------------------|
|---------------------------------------------------------------|
|---------------------------------------------------------------|
Look, if you had 
|---------------------------------------------------------------|
|---------------------------------------------------------------|
|----2--2--2--2--2--2--0--0--3--3--3--3--3--3--0----------------|
|----0--0--0--0--0--0--------0--0--0--0--0--0-------------------|
|---------------------------------------------------------------|
|---------------------------------------------------------------|
one shot or one opportunity
|---------------------------------------------------------------|
|---------------------------------------------------------------|
|----2--2--2--2--2--2--0--0--3--3--3--3--3--3--0----------------|
|----0--0--0--0--0--0--------0--0--0--0--0--0-------------------|
|---------------------------------------------------------------|
|---------------------------------------------------------------|
To seize everything you ever wanted 
|---------------------------------------------------------------|
|---------------------------------------------------------------|
|----2--2--2--2--2--2--0--0--3--3--3--3--3--3--0----------------|
|----0--0--0--0--0--0--------0--0--0--0--0--0-------------------|
|---------------------------------------------------------------|
|---------------------------------------------------------------|
in one moment
|---------------------------------------------------------------|
|---------------------------------------------------------------|
|----2--2--2--2--2--2--0--0--3--3--3--3--3--3--0----------------|
|----0--0--0--0--0--0--------0--0--0--0--0--0-------------------|
|---------------------------------------------------------------|
|---------------------------------------------------------------|
Would you capture it, 
|---------------------------------------------------------------|
|---------------------------------------------------------------|
|----2--2--2--2--2--2--0--0--3--3--3--3--3--3--0----------------|
|----0--0--0--0--0--0--------0--0--0--0--0--0-------------------|
|---------------------------------------------------------------|
|---------------------------------------------------------------|
or just let it slip? Yo

Em
His palms are sweaty, knees weak, arms are heavy
C                            D
There’s vomit on his sweater already, mom’s spaghetti
Em
He’s nervous, but on the surface he looks calm and ready
C              D
To drop bombs, but he keeps on forgetting
Em
What he wrote down, the whole crowd goes so loud
C                  D
He opens his mouth, but the words won’t come out
Em
He’s choking, how? Everybody’s joking now
C                    D          
The clock’s run out, time’s up, over—blaow!

Em
Snap back to reality, oh there goes gravity
C                      D
Oh, there goes Rabbit, he choked, he’s so mad but he won’t
Em
Give up that easy, no, he won’t have it, he knows
C                                 D
His whole back’s to these ropes, it don’t matter, he’s dope
Em
He knows that but he’s broke, he’s so stagnant, he knows
C                      D
When he goes back to this mobile home, that’s when it’s
Em
Back to the lab again yo, this old rap shit, he
C                                 D
Better go capture this moment and hope it don’t pass him, and


Em
You better lose yourself in the music
C                       D
The moment, you own it, you better never let it go (Go!)
Em
You only get one shot, do not miss your chance to blow
C                       D
This opportunity comes once in a lifetime, yo


Em
His soul’s escaping through this hole that is gaping
C                                  D
This world is mine for the taking, make me king
Em
As we move toward a New World Order
C                        D
A normal life is boring; but superstardom’s
Em
Close to post-mortem, it only grows harder
C                     D
Homie grows hotter, he blows, it’s all over
Em
These hoes is all on him, coast-to-coast shows
C                                D
He’s known as the Globetrotter, lonely roads
Em
God only knows, he’s grown farther from home, he’s no father
C                     D
He goes home and barely knows his own daughter
Em
But hold your nose, ’cause here goes the cold water
C                                 D
These hoes don’t want him no mo’, he’s cold product
Em
They moved on to the next schmoe who flows
C                           D
He nose-dove and sold nada, and so the soap opera
Em
Is told, it unfolds, I suppose it’s old, partner
C                     D
But the beat goes on: da-da-dom, da-dom, dah-dah, dah-dah


Em
You better lose yourself in the music
C                       D
The moment, you own it, you better never let it go (Go!)
Em
You only get one shot, do not miss your chance to blow
C                       D
This opportunity comes once in a lifetime, yo

Em
No more games, I’ma change what you call rage
C                       D
Tear this motherfuckin’ roof off like two dogs caged
Em
I was playin’ in the beginning, the mood all changed
C                        D
I’ve been chewed up and spit out and booed off stage
Em
But I kept rhymin’ and stepped right in the next cypher
C                             D
Best believe somebody’s payin’ the Pied Piper
Em
All the pain inside amplified by the
C                       D
Fact that I can’t get by with my nine-to-
Em
Five and I can’t provide the right type of life for my family
C                                      D
‘Cause man, these goddamn food stamps don’t buy diapers
Em
And there’s no movie, there’s no Mekhi Phifer, this is my life
C                              D
And these times are so hard, and it’s gettin’ even harder
Em
Tryna feed and water my seed, plus teeter-totter
C                              D
Caught up between bein’ a father and a prima donna
Em
Baby mama drama, screamin’ on her, too much for me to wanna
C                     D
Stay in one spot, another day of monotony’s
Em
Gotten me to the point I’m like a snail, I’ve got
C                           D
To formulate a plot or end up in jail or shot
Em
Success is my only motherfuckin’ option—failure’s not
C                 D
Mom, I love you, but this trailer’s got
Em
To go; I cannot grow old in Salem’s Lot
C                           D
So here I go, it’s my shot: feet, fail me not


This may be the only opportunity that I got
 
 
Свернуть Распечатать

Видео