Eminem - Till I Collapse, аккорды

Прокрутка
Тональность
Шрифт
100
Main Riff:
e---------------------------------------------
A---------------------------------------------
B---------------------------------------------
D---5-5-5-5-5--3-5-6-5-------5-5-5-5-5--3-5-1-
G-3------------------------3------------------
E---------------------------------------------

e-----------------------------------------------
A-----------------------------------------------
B-----------------------------------------------
D---5-5-5-5-5--3-5-6-5-------5-5-5-5-5----1-----
G-3------------------------3----------------1-3-
E-----------------------------------------------

g-3-3-3-3-3-3-3-3-3-3-3-3-3-3-3-3-3-3-3-3-3-3-3-3
 ~~~~~~~~~~~~~~~~~~~~PM~~~~~~~~~~~~~~~~~~~~~~~~~~
  Play This Troughout The Song  (2nd Guitar)

e----------------------------------------------
A----------------------------------------------
B----------------------------------------------
D---5-5-5-5-5--3/5--65-------5-5-5-5-5--3/5--1-
G-3-------------------------3------------------
E----------------------------------------------
 
 

Видео