Enrique Iglesias - Tired Of Being Sorry, аккорды

Прокрутка
Тональность
Шрифт
100
Intro:                 
|-3---3---3h4-3------------------------------------| 
|---------------6-4-4/6----------------------------| 
|---------------------------------------------------| 
|--------------------------------------------------| 
|-------------------------------------------------| 
|------------------------------------------------| 
 
                     
|-3--3--3--3-h4-----------------------------------| 
|---------------6--4-------------------------------| 
|--------------------5-----------------------------| 
|--------------------------------------------------| 
|-------------------------------------------------| 
|------------------------------------------------| 
 
 
|--8/6—-6/4--4-----------------------------------| 
|--9/8----8/6--6---------3--h4-h6-h4-----3h4h3-----| 
|------------------------------------------------| 
|---------------------------------------------------| 
|-----------------------------------------------------| 
|------------------------------------------------------|- 
 
[Verse 1] 
          Em 
I don't know why 
                 Bm 
You want to follow me tonight 
BmEm 
When the rest of the world 
                     ​F# 
With whom I've crossed and I've quarreled 
         ​Em 
Let's me down so 
                    ​Bm 
For a thousand reasons that I know 
BmEm 
To share forever the unrest 
                ​F# 
With all the demons I possess 
F#Bm 
Beneath the silver moon
 ​
[Chorus] 
BmEm 
Maybe you were right 
AD        G 
But baby I was lonely 
GEm 
I don't want to fight 
ABm
I'm tired of being sorry 
 ​
[Solo] 
 ​
[Verse 2] 
          ​Em 
Chandler and Van Nuys 
                  ​Bm 
With all the vampires and their brides 
BmEm 
We're all bloodless and blind 
           ​F# 
And longing for a life 
F#Bm 
Beyond the silver moon 
 ​
[Chorus] 
BmEm 
Maybe you were right 
AD        G 
But baby I was lonely 
GEm 
I don't want to fight 
A              Bm 
I'm tired of being sorry 
 ​
BmEm 
I'm standing in the street yeah 
AD      G 
Crying out for you 
GEm 
No one sees me 
ABm 
But te silver moon 
 ​
[Solo] 
 ​
[Bridge] 

DEm 
So far away – so outer space 
BmG 
I've trashed myself – I've lost my way 
F#F# 
I've got to get to you 
F#F# 
I've got to get to you 
​
[Chorus] 
       
 ​Em 
Maybe you were right 
AD        G 
But baby I was lonely 
GEm 
I don't want to fight 
ABm 
I'm tired of being sorry 
 ​
BmEm 
I'm standing in the street yeah 
AD      G 
Crying out for you 
GEm 
No one sees me 
ABm 
But the silver moon 
 
 
Свернуть Распечатать

Аппликатуры аккордов

Аккорд EmАккорд BmАккорд F#Аккорд AАккорд DАккорд G
user_152542user_152542
автор подбора аккордов
756 1 18.01.2022

Видео