Enrique Iglesias - Be With You, аккорды

Прокрутка
Тональность
Шрифт
100
Intro:
(0:00-0:03)          (0:04-0:06)
e-----7--5--4----------------------
B--------------7-----7-5-7--7/9--9-
G--4-------------------------------
D----------------------------------
A----------------------------------
E----------------------------------

(0:08-0:10)               (0:12-0:17)          
e-----5/7--5--7/9--------------------------
B------------------7------54-2------9/10-9-
G--4---------------------------------------
D------------------------------------------
A------------------------------------------
E------------------------------------------

(1:28-1:35)
e-------------------------------
B--7/9--7-5-4------------555/75-
G-------------6-----------------
D---------------65/6--5---------
A-------------------------------
E-------------------------------

(1:48-1:50)             (2:16-2:18)        (2:21-2:22)
e----------------------------------9--------------------
B--------7-7/9-7-5/7-----9-10-12-----9------4-5-4/54----
G----8-9----------------------------------------------6-
D--6----------------------------------------------------
A-------------------------------------------------------
E-------------------------------------------------------

Solo:
(2:25-2:34)
e---------------5/7-7-7-5-4-5-3/4-12--161616-14-12-11-12----
B--7/9-9-9-7-5-7-----------------------------------------12-
G-----------------------------------------------------------
D-----------------------------------------------------------
A-----------------------------------------------------------
E-----------------------------------------------------------

(2:51-2:52)         (2:59-3:01)            (3:06-3:07)
e------------------------------------------------------
B--7-5-7-7/9-9------------8-6-5/65--------4H5-7-5-4----
G-------------------7-5-7-----------7----------------6-
D------------------------------------------------------
A------------------------------------------------------
E------------------------------------------------------

(3:14-3:16)            (3:21-3:23)              
e-------------------------------------------------
B----4-5-7--5-4-5------121212-10-9-10-9-7-9-7-5-7-
G--6----------------------------------------------
D-------------------------------------------------
A-------------------------------------------------
E-------------------------------------------------
 
 

Видео