Enrique Iglesias - Escape, аккорды

Прокрутка
Тональность
Шрифт
100
I WAZ LOOKIN FOR THIS EVERYWHERE SO I CAME ON HERE BUT IT DIDNT HAVE IT ON
SO I THOUGHT TO MYSELF'AVE A GO' AN I DID!

e|-----------------------------------------|
B|-----------------------------------------|
G|-----------------------------------------|
D|---------10------10-----10---------------|
A|-----10------10------8------8------------|
E|--8--------------------------------------|

e|-----------------------------------------|
B|-----------------------------------------|
G|-----------------------------------------|
D|--------7-----7-----7--------------------|
A|-----7-----7-----5-----5-----------------|
E|--5--------------------------------------|

(REPEAT OVER AN OVER AGAIN)
 
 

Видео