Эпидемия - Я молился на тебя, аккорды

Прокрутка
Тональность
Шрифт
100
Bm     A    Em   G
(1)Голос твой затих,
Bm     A      Em G
Растворяясь в ночи -
D      G        A A7
Ты исчезла во мгле,
Bm      A       Em G
Словно пламя свечи.

E---0-0h2h3p0-0h2p0--------------0h2h3p0-0h2p0-5h7p5-
B-------------------3p2p0--0h2h5---------------------
G----------------------------------------------------
D----------------------------------------------------
A----------------------------------------------------
E----------------------------------------------------

Bm     A    Em   G
(2)В моих снах нету слез -
Bm     A      Em G
В них я рядом с тобой.
D      G       A A7
Просыпаюсь в бреду -
Bm     A      Em G
Пусто рядом со мной.

Переход:	
G        A         Bm
В моем сердце пустота,
G    A          F#
А душа моя мертва!

Припев:
      G         A
Я молился на тебя,
       Bm     D     Em
Я смотрел в твои глаза,
          G         A
Словно звезды в небесах
           Bm
Мне сияли они.
        G           A
Дарят свет они не мне -
     Bm      D   Em
Я остался в тишине,
          Em         F#
Только в доме моем смех
                 G
До сих пор твой звенит.
   Em        F#
В доме моем смех
          Bm
До сих пор твой звенит.

Bm     A    Em   G
(3)Вроде только вчера
Bm     A      Em G
Был я рядом с тобой,
D      G      A A7
Твою руку держал,
Bm     A      Em G
Как в мечте золотой.

Bm     A    Em G
(4)Ледяная вода
Bm     A      Em G
Заменяет мне кровь,
D      G     A A7
Потому что обман
Bm     A    Em G
Уничтожил любовь!

Переход:	
G        A         Bm
В моем сердце пустота,
G    A          F#
А душа моя мертва!

Припев:
      G         A
Я молился на тебя,
       Bm     D     Em
Я смотрел в твои глаза,
          G         A
Словно звезды в небесах
           Bm
Мне сияли они.
        G           A
Дарят свет они не мне -
     Bm      D   Em
Я остался в тишине,
          Em         F#
Только в доме моем смех
                 G
До сих пор твой звенит.
   Em        F#
В доме моем смех
          Bm
До сих пор твой звенит.

Соло

Переход:	
G        A         Bm
В моем сердце пустота,
G    A          F#
А душа моя мертва!

Припев:
      G         A
Я молился на тебя,
       Bm     D     Em
Я смотрел в твои глаза,
          G         A
Словно звезды в небесах
           Bm
Мне сияли они.
        G           A
Дарят свет они не мне -
     Bm      D   Em
Я остался в тишине,
          Em         F#
Только в доме моем смех
                 G
До сих пор твой звенит.
   Em        F#
В доме моем смех
          Bm
До сих пор твой звенит.

      G         A
Я молился на тебя,
       Bm     D     Em
Я смотрел в твои глаза,
          G         A
Словно звезды в небесах
           Bm
Мне сияли они.
        G           A
Дарят свет они не мне -
     Bm      D   Em
Я остался в тишине,
          Em         F#
Только в доме моем смех
                 G
До сих пор твой звенит.
   Em        F#
В доме моем смех
          Bm
До сих пор твой звенит.
________________________________
Табулатура:

Куплет:
E----------------------------5-----
B------3-------2-------3-------3---
G--------4-------2-------0-------4- }x2 
D----4-------2---------------------
A--2-------0---------2-------------
E------------------0-------3-------

E--------2-------2-----------------------
B------3-------3---------2-3-2h3p2---2h3-
G----2-------2---------2-----------4----- }x1, потом 1-ая фигура
D--0-----------------2------------------- }
A------------------0---------------------
E----------3-----------------------------

Гармония под проигрыш:
E--0--------------2--------------0-
B--0--------------3--------------2-
G--0--------------2--------------2- }x2, потом 1-ая
D--2--------------0--------------2- } и 2-ая фигуры
A--2--------------0--------------0-
E--0-----------------------------0-

Проигрыш:
E-------------------------------------------------------------
B------------------------------------------------------/15-14-
G--9h11/12-11---9h11-9---/7-6----9h11/12-11---9h11-9----------
D-------------------------------------------------------------
A-------------------------------------------------------------
E-------------------------------------------------------------

E--3-3-x-x-5-5-x-x-7-7-x-x-5-5---5--5--5-
B--3-3-x-x-5-5-x-x-7-7-x-x-5-5---5--5--5-
G--4-4-x-x-6-6-x-x-7-7-x-x-6-6---6--6--6-
D--5-5-x-x-7-7-x-x-9-9-x-x-7-7---7--7--7-
A--5-5-x-x-7-7-x-x-9-9-x-x-7-7---7--7--7-
E--3-3-x-x-5-5-x-x-7-7-x-x-5-5---5--5--5-

E--3-3-x-x-5-5-x-x-2--2--2--2--2-
B--3-3-x-x-5-5-x-x-2--2--2--2--2-
G--4-4-x-x-6-6-x-x-3--3--3--3--3-
D--5-5-x-x-7-7-x-x-4--4--4--4--4-
A--5-5-x-x-7-7-x-x-4--4--4--4--4-
E--3-3-x-x-5-5-x-x-2--2--2--2--2-

Припев:
E-----------------------------------------------------
B-----------------------------------------------------
G-----2-----------------------------------------------
D--2--2--4------2-----4-------------------------------
A--2--0--2-4-5--2--4--2-2-2-2-2-2-2-2-2-2-2-2-2-2-2-2-
E--0-------2-3--0--2----------------------------------

E-------------------------------------------------
B-------------------------------------------------
G-----2-------------------------------------------
D--2--2------4-----------2--4---------------------
A--2--0--2-2-2------4-5--2--2-4-5-----------------
E--0------------2-2-2-3--0----2-3-3-3-3-3-3-3-3-3-

E|----------
B|----------
G|----------
D|--2-----4-
A|--2--4--2-
E|--0--2----
 
 
Свернуть Распечатать

Видео