Запрещают песни Цоя, Агата Кристи, Наутилус Помпилиус, Зиверт
Отвечаем в отдельной теме

Europe - Girl From Lebanon, аккорды

Прокрутка
Тональность
Шрифт
100
E|-------------------------------------------------------------------------|
B|--------------------5--8--10v----10h8-10h8---------------8---------------|
G|-------4---5---7-----------------------------7br--5--7b----9v------------|
D|---7---------------------------------------------------------------------|
A|-------------------------------------------------------------------------|
E|-------------------------------------------------------------------------|

E|-------------------------------------------------------------------------|
B|----------------5--8--3---3v---------------------------------------------|
G|------4--5--7-----------5------7h5-7h5------5----------------------------|
D|---7-------------------------------------7-----7---5---------------------|
A|-------------------------------------------------------7--5--3-----------|
E|----------------------------------------------------------------5--3s5---|
 
 

Видео