Запрещают песни Цоя, Агата Кристи, Наутилус Помпилиус, Зиверт
Отвечаем в отдельной теме

Europe - Little Bit Of Lovin, аккорды

Прокрутка
Тональность
Шрифт
100
Intro:
E A E
e |-------------------------|
B |-------------------------|
G |-------2--2-2------------|
D |-2-2---2--2-2----2-------|
A |-2-2---0--0-0----2-------|
E |-0-0-3--------3--0-------|
 
Chorus:
E A E C D E D A
e |-------------------------------------------------| The first time
B |-------------------------------------------3-----| this riff comes up
G |---------2--2-2-----------5---7------------2--2--| play this 1st time.
D |-2-------2--2-2-------2---5---7------2-2-2-0--2--| 2nd time play the
A |-2----2--0--0-0--2----2---3---5-0h-2---2-2----0--| lick below.
E |-0--3--------------3--0----------------0-0-------|

A
e |---------------------------------|
B |---------------------------------|
G |---------0--------------------2--|
D |-2-2-0-----2-0---2-0----------2--|
A |-------2-------2----2-0-------0--|
E |------------------------3-2-0----|

Verse:
E D E E D E D D/C# D/G E D E
e |-------------------------------------------------------|
B |--9-7-9--------------9-7-9------2-----2-----2---9-7-9--|
G |--9-7-9--------------9-7-9-----3----3-----3-----9-7-9--|
D |--7-5-7-------0h-2---7-5-7---0------------------7-5-7--|
A |---------0h-2---------------------4--------------------|
E |----------------------------------------3-----0--------|

B
e |----------------|
B |----------------|
G |-4-4-4----------|
D |-4-4-4----------|
A |-2-2-2----------|
E |----------------|

Bridge:
E D A B
Ohh, You gotta give me some lovin',yeah. 
I'm gonna make you feel so good...

Комментарий автора:

Chords:
E 0221xx or 022xxx or x799xx
A x0222x or x022xx
D xx023x or x577xx
C x355xx
B x244xx
D/C# x4032x
D/G 3x032x
open position E xxx450 and D xx0232
 
 

Видео