Запрещают песни Цоя, Агата Кристи, Наутилус Помпилиус, Зиверт
Отвечаем в отдельной теме

Europe - Carrie, аккорды

Прокрутка
Тональность
Шрифт
100
 E|-3--2--------------------3--2-----------0---------0-----0----------| 
 B|-------3--0--------------------0--3------------3-----3-----3--0--1-| 
 G|----------------------0--------------0------0----------------------| 
 D|----------------2--4-----------------------------------------------| 
 A|-------------2--------------------3------------------------------0-| 
 E|----------0--------------------------------------------------------| 
 
 E|----3------------3------0-----3--0--2p0-----------------------------| 
 B|-------1---3--------3--------------------3------3--3--1--1--0--0----| 
 G|-----------4---------------0----------------2------2--------------0-| 
 D|-2------------5---------------------0--------------2----------------| 
 A|-----------2------------3--------------------------0-----------0----| 
 E|--------------------------------------------------------------------| 
 
 E|-----------------------------------3-| 
 B|-----3--3--1--1--0--0--------------0-| 
 G|-0------0--------------0--0--2--0--0-| 
 D|--------2-----------0----------------| 
 A|--------3----------------------------| 
 E|--------------------------------3----|
 
 

Видео