Запрещают песни Цоя, Агата Кристи, Наутилус Помпилиус, Зиверт
Отвечаем в отдельной теме

Europe - The Final Countdown, аккорды

Прокрутка
Тональность
Шрифт
100
Intro:
Riff 1.
E|-------------------------------------------------------------------|
B|-----0---0-----------1-0-1--0---------1-0-1------------------------|
G|-------2-------------------------2--------------------2-0-2-0----0-|
D|--------------2---------------------2-----------2--4-----------4---|
A|--2---------------3------------------------------------------------|
E|-------------------------------------------------------------------|

Riff 2:
E|--------------------------------------------------------------------------|
B|------------------0-------------1-0---0-1-0------0------------------------|
G|--0---0-2-0--2------2-0----------------------2----------------0-----------|
D|----4----------------------4-2------------------------2--0-------4--2---2-|
A|------------------------------------------------------------2-------------|
E|----------------------------------------------------0---------------------|

Vocals:
E|-0-0-2-3--2-0--0-0-2-3-0--0-0-2-3-2-0----3-2-0-0--0-0-2-3-2-0---3-3-5-3-2-0|
B|-------------------------------------3-0--------3-3----------3-3-----------|
G|---------------------------------------------------------------------------|

Rythm:
D|----------------------------------------------------------------------------|
A|------------------------------------------------------3-3-3-3-3-5-5-5-5-5-5-|
E|0-0-0-0-0-0-0-0-0-0-0-0-0-0-0-0-9-9-9-9-3-3-3-3-3-3-3-----------------------|

Vocals:
E|---0-0-2-3-2-0------0-2-2-0-0-3-2-2-0-|
B|----------------3-3-------------------|
G|--------------------------------------|

Rhythm:
D|-------------------9-9----------------|
A|--------5-5-3-3--------5-5------------|
E|---0-0----------------------------0-0-|

Так повторяется всю песню.

Соло:

Riff 1:
E|--10-14/10----10-14/10-----10-14/10------12-15/12-----12-15/12-----12-15/12-|
B|12----------12-----------12------------14-----------14-----------14---------|
G|----------------------------------------------------------------------------|

Riff 2:
E|---14-17/14---14-17/14---14-17/14----7-10-7---7-10-7-----7------------------|
B|-15---------15---------15----------8--------8--------8-10--10-8-7--10-8-7---|
G|--------------------------------------------------------------------------7-|

Riff 3:                                        Bend 1/2
E|--------------------|----7--------7--------------------------------------|
B|---8-8-8—7h8p7------|---7--6--4--2----10>--7-10p7--10p7--9p6--7--7-----7-|
G|-9>-------------9p7-|----9--------------7--9p7--7(9)---------------------|

Комментарий автора:

Lyrics:

We´re leaving together,
But still it´s farewell
And maybe we´ll come back,
To earth, who can tell?
I guess there is no one to blame
We´re leaving ground   (leaving ground)
Will things ever be the same again?     
It´s the final countdown...
the final countdown...               
Ohhh

We´re heading for Venus 
And still we stand tall
Cause maybe they´ve seen us and welcome us all
With so many light years to go 
and things to be found  (to be found)
I´m sure that we´ll all miss her so.
It´s the final countdown...
the final countdown...               
the final countdown...                  
Ohhh!
 
 

Видео