Evanescence - The Other Side, аккорды

Прокрутка
Тональность
Шрифт
100
Tuning: (low to high) A# F A# D# G C
Tabbed by: FireReaverX

Intro
C |------------------------------------------------------------------|
G |------------------------------------------------------------------|
D#|------------------------------------------------------------------|
A#|-----------------------------0------------------------------------|
F |-------2-------2---------2p0---0--------2-------2-----------------|
A#|-2-2-2-2-----2-2-----2-2-2p0-----2222-2-2-----2-2-----------------|
   . . .     .     . .      .... .     .

C |------------------------------------------------------------------|
G |------------------------------------------------------------5----|
D#|------------------------------------------------------------5-5-|
A#|-----------------------------0---------------------------------5-|
F |-------2-------2---------2p0---0--------2-------2-----------------|
A#|-2-2-2-2-----2-2-----2-2-2p0-----2222-2-2-----2-2-----------------|
   . . .     .     . .      .... .     .

Verse
C |------------------------------------------------------------------|
G |------------------------------------------------------------------|
D#|------------------------------------------------------------------|
A#|-----------------------------0------------------------------------|
F |-------2-------2---------2p0---0--------2-------2-----------------|
A#|-2-2-2-2-----2-2-----2-2-2p0-----2222-2-2-----2-2-----------------|
   . . .     .     . .      .... .     .

C |-----------------------------------------------------------------|
G |-----------------------------------------------------------------|
D#|-----------------------------------------------------------------|
A#|-----------------------------0---5-------0-----2---------2p0-----|
F |-------2-------2---------2p0---0-5-------0-----2---------2p0-----|
A#|-2-2-2-2-----2-2-----2-2-2p0-----5-------0-----2---------2p0-0---|
   . . .     .     . .      

C |------------------------------------------------------------------|
G |------------------------------------------------------------------|
D#|------------------------------------------------------------------|
A#|-----------------------------0------------------------------------|
F |-------2-------2---------2p0---0--------2-------2-----------------|
A#|-2-2-2-2-----2-2-----2-2-2p0-----2222-2-2-----2-2-----------------|
   . . .     .     . .      .... .     .

C |-----------------------------------------------|
G |-----------------------------------------------|
D#|-----------------------------------------------|
A#|-----------------------------0---5-------0-----|
F |-------2-------2---------2p0---0-5-------0-----|
A#|-2-2-2-2-----2-2-----2-2-2p0-----5-------0-----|
   . . .     .     . .      

Pre-chorus
C |-------------------------------------------------------------|
G |-------------------------------------------------------------|
D#|-5-5-5-------------------------5-5-5-------------------------|
A#|-5-5-5---5-----2-----2---2-2p0-5-5-5---5-----2-----2---2-2p0-|
F |-3-3-3---5-----2-----2---2-2p0-3-3-3---5-----2-----2---2-2p0-|
A#|---------5---2-2---2-2---2-2p0---------5---2-2---2-2---2-2p0-|
           .   .                .   .

C |----------------------------------------------------------------|
G |----------------------------------------------------------------|
D#|-5-5-5-------------------------5-5-5-5-5-5-5-5-5-/7-7-7-7-7-7-7-|
A#|-5-5-5---5-----2-----2---2-2p0-5-5-5-5-5-5-5-5-5-/7-7-7-7-7-7-7-|
F |-3-3-3---5-----2-----2---2-2p0-3-3-3-3-3-3-3-3-3-/5-5-5-5-5-5-5-|
A#|---------5---2-2---2-2---2-2p0----------------------------------|
           .   .

Chorus
C |-----------------------------------------------------------------|
G |-----------------------------------------------------------------|
D#|-----------------5-----5-----5---2-----2-----2---2-----2-2---2---|
A#|-2-----2-----2---5-----5-----5---2-----2-----2---2-----2-2---2---|
F |-2-----2-----2---3---3-3-----3---4---4-4-----4---4---4-4-4h5-5---|
A#|-2---2-2-----2---------------------------------------------------|
     .          .          .          .

C |--------------------------------------------------------------------|
G |--------------------------------------------------------------------|
D#|-----------------5-----5-----5---2-----2----------------------------|
A#|-2-----2-----2---5-----5-----5---2-----2----------5--------4--------|
F |-2-----2-----2---3---3-3-----3---0---0-0-----0000-5--------4--------|
A#|-2---2-2-----2------------------------------------5---5555-4---4444-|
     .          .          .     ....   ....   ....

C |-----------------------------------------------------------------|
G |-----------------------------------------------------------------|
D#|-----------------5-----5-----5---2-----2-----2---2-----2-2---2---|
A#|-2-----2-----2---5-----5-----5---2-----2-----2---2-----2-2---2---|
F |-2-----2-----2---3---3-3-----3---4---4-4-----4---4---4-4-4h5-5---|
A#|-2---2-2-----2---------------------------------------------------|
     .          .          .          .

C |---------------------------------|
G |---------------------------------|
D#|-5-5-5-5-5-5-5-5-----------------|
A#|-5-5-5-5-5-5-5-5-5-5-5-5-4-4-4-4-|
F |-3-3-3-3-3-3-3-3-5-5-5-5-4-4-4-4-|
A#|-----------------5-5-5-5-4-4-4-4-|

Transition
C |-----------------------------------------------------------------|
G |-----------------------------------------------------------------|
D#|-----------------------------------------------------------------|
A#|---------------------------------5-------0-----2---------2p0-----|
F |---------------------------------5-------0-----2---------2p0-----|
A#|-5-2-0-2---2-0-2---2-2-0-2-0-5---5-------0-----2---------2p0-0---|

Verse
Pre-chorus
Chorus

Bridge
C |-----------------------------------|
G |-----------------------------------|
D#|-----------------------------------|
A#|-----------------------------------|
F |-----------------------------------|
A#|-5-2-0-2---------------------5/12-|
   . . . .

C |-----------------------------------------------------------------|
G |-----------------------------------------------------------------|
D#|-----------------------------------------------------------------|
A#|-----------------------------------------------------------------|
F |-----------------------------------------------------------------|
A#|-5-2-0-2---2-0-2---2-2-0-2-0-5---5-2-0-2---2-0-2---2-2-0-2-0-5---|

C |-----------------------------------------------------------------|
G |-----------------------------------------------------------------|
D#|-----------------------------------------------------------------|
A#|-----------------------------------------------------------------|
F |-----------------------------------------------------------------|
A#|-5-2-0-2---2-0-2---2-2-0-2-0-5---5-2-0-2---2-0-2---2-2-0-2-0-5---|

C |-----------------------------------------------------------------|
G |-----------------------------------------------------------------|
D#|-5-5-5-5-5-5-5-5-5-5-5-5-5-5-5-5-5-5-5-5-5-5-5-5-5-5-5-5-5-5-5-5-|
A#|-5-5-5-5-5-5-5-5-5-5-5-5-5-5-5-5-5-5-5-5-5-5-5-5-5-5-5-5-5-5-5-5-|
F |-3-3-3-3-3-3-3-3-3-3-3-3-3-3-3-3-3-3-3-3-3-3-3-3-3-3-3-3-3-3-3-3-|
A#|-----------------------------------------------------------------|

C |-----------------------------------------------------------------|
G |-----------------------------------------------------------------|
D#|-----------------------------------------------------------------|
A#|-----------------------------------------------------------------|
F |-----------------------------------------------------------------|
A#|-5-2-0-2---2-0-2---2-2-0-2-0-5---5-2-0-2---2-0-2---2-2-0-2-0-5---|

C |-----------------------------------------------------------------|
G |-----------------------------------------------------------------|
D#|-7-7-7-7-7-7-7-7-7-7-7-7-7-7-7-7-7-7-7-7-7-7-7-7-7-7-7-7-7-7-7-7-|
A#|-7-7-7-7-7-7-7-7-7-7-7-7-7-7-7-7-7-7-7-7-7-7-7-7-7-7-7-7-7-7-7-7-|
F |-5-5-5-5-5-5-5-5-5-5-5-5-5-5-5-5-5-5-5-5-5-5-5-5-5-5-5-5-5-5-5-5-|
A#|-----------------------------------------------------------------|

C |-------------------------------------------------------------------|
G |-------------------------------------------------------------------|
D#|-------------------------------------------------------------------|
A#|-------------------------------------------------------------------|
F |-------------------------------------------------------------------|
A#|-5-2-0-2---2-0-2---2-2-0-0000-5---5-2-0-2---2-0-2-0--0--0--0--0--0-|
                   ....              . . . . . .

C |--------------------------------------------------------------------|
G |--------------------------------------------------------------------|
D#|--------------------------------------------------------------------|
A#|--------------------------------------------------5--------4--------|
F |--------------------------------------------------5--------4--------|
A#|-5-2-0-2---2-0-2---2-2-0-0000-5---5-2-0-2---2-0-2-5---5555-4---4444-|
                   ....                 ....   ....

C |--------------------------------------------------------------------|
G |--------------------------------------------------------------------|
D#|--------------------------------------------------------------------|
A#|-2------------------------------------------------------------------|
F |-2------------------------------------------------------------------|
A#|-2------------------------------------------------------------------|

Chorus

Ending
C |------------------------------------------------------------------|
G |------------------------------------------------------------------|
D#|------------------------------------------------------------------|
A#|-----------------------------0------------------------------------|
F |-------2-------2---------2p0---0--------2-------2-----------------|
A#|-2-2-2-2-----2-2-----2-2-2p0-----2222-2-2-----2-2-----------------|

Make me whole again 
Open your eyes 
Taunted by the shadows of your lie 
Cold and far away 
But not even mine 
Undo everything and take me higher 
Never believing what they say ‘cause I'm... 

Counting the days to meet you on the other side 
I will always be waiting 
Until the day that I see you on the other side 
Come and take me home 

I'm not giving in 
I want you back 
Holding together by shards of our past 
Stole my heart away 
I can't let you go 
Break these chains and let me fly till you're higher 
Over and over in my mind 

Counting the days to meet you on the other side 
I will always be waiting 
Until the day that I see you on the other side 
Come and take me home 

I am so lost without my place inside your heart 

I won't survive 
I need to know you hear me 
Awaken I'll release my love 

Counting the days to meet you on the other side 
I will always be waiting 
Until the day that I see you on the other side 
Come and take me home 
Counting the days to meet you on the other side 
I will always be waiting 
Until the day that I see you on the other side 
Come and take me home
 
 

Видео