Evanescence - Bring Me To Life, аккорды

Прокрутка
Тональность
Шрифт
100
Main Riff:
e|--------------------------------------------------------------------------------
B|--------------------------------------------------------------------------------
G|--------------------------------------------------------------------------------
D|-------------3----------------3--------------------------3------------------5-3-
A|5-6-5-3-5-1----0-1-3---5-3-8-6-5-3-5-1----0-1-3-1-0-----------------------------
e|--------------------------------------------------------------------------------

--------------------------------------------------------------------------------
--------------------------------------------------------------------------------
--------------------------------------------------------------------------------
-------------3--------3----------------------------------------3--------------0-
1-3----0-1-6-5-3-5-1---5-3-5-6-5-3-5-1--3--0------------------------------------
--------------------------------------------------------------------------------
 
 

Видео