Evanescence - Bring Me To Life, аккорды

Прокрутка
Тональность
Шрифт
100
Intro:
piano(1) :
| |-----|19-17-19-20|-24-19---|
|1|---17|-----------|---------|
| |-----|-----------|---------| repeat
| |-----|-----------|---------|
|4|-----|-----------|---------|
| |-----|-----------|---------| 

Piano(2): plays together with piano1:
|1|------|------------------------|-------------------------|
| |------|------17----17----17----|-17----17----17----17----|
| |------|---16----16----16----16-|----16----16----16----16-| repeat
| |------|14----------------------|-------------------------|
|4|------|------------------------|-------------------------|
| |------|------------------------|-------------------------|

Verse:
e|----------------------------------------------------------------|
B|----------------------------------------------------------------|
G|--------------------------------------------5-5--5-5--5-5--5-5--|
D|-2--2-2--2-2--2-2--2-2--2-2--2-2--2-2--2-2--3-5--5-5--5-5--5-5--|
A|-2--2-2--2-2--2-2--2-2--2-2--2-2--2-2--2-2--3-3--3-3--3-3--3-3--|
E|-0--0-0--0-0--0-0--0-0--0-0--0-0--0-0--0-0--3-3--3-3--3-3--3-3--|

Chorus:
|---------------------------------------------|
|---------------------------------------------|
|---------------------- 7-7-7-7-7-------------|
|-2-2-2-2-2--5-5-5-5-5--7-7-7-7-7--2-2-5-7----|
|-2-2-2-2-2--5-5-5-5-5--5-5-5-5-5--2-2-3-7----|
|-0-0-0-0-0--3-3-3-3-3-------------0-0-0-0----|
 
 

Видео