Evanescence - Bring Me To Life, аккорды

Прокрутка
Тональность
Шрифт
100
Main Riff:
e-------------|---
B-------------|---
G-------------|---
D-3-3---------|-3-
A-3-3---------|-3-
E-------------|---
 with delay    volume swell                                                   

-------------|------------------|-------------|------------------|
-------------|------------------|-------------|------------------|
-------------|----------------5*|-------------|---------------5*-|
-------------|----------------5*|-55-55-55-55-|---------------5*-| x2
-33-33-33-33-|-33-33-33-33-33---|-33-33-33-33-|33-33-33-33-33----|
-33-33-33-33-|-33-33-33-33-33---|-33-33-33-33-|33-33-33-33-33----|
 verse1       pm           ..                  pm          ..                 

-|---|---|--|--|---|--|
-|---|---|--|--|---|--|
-|---|---|--|--|-5-|--|
-|-3-|-5-|-2|-3|-3-|-3| x2
-|-3-|-5-|-2|-3|-3-|-3|
-|-3-|-5-|-2|-3|-3-|-3|
  chords used in chorus in order                                              

-------------------
-------------------
----------------5*-
----------------5*-
-33-33-33-33-33----
-33-33-33-33-33----
 pm          ..                                                                 

-----------------|-------------------|----------------|-------------------
-----------------|-------------------|----------------|-------------------
-----------------|----------------5*-|----------------|----------------5*-
-----------------|----------------5*-|55-55-55-55-555-|----------------5*- x2
-33-33-33-33-333-|-33-33-33-33-33----|33-33-33-33-333-|-33-33-33-33-33----
-33-33-33-33-333-|-33-33-33-33-33----|33-33-33-33-333-|-33-33-33-33-33----
 pm           ..               ..                  ..               ..        

-|---|---|--|--|---|--|
-|---|---|--|--|---|--|
-|---|---|--|--|-5-|--|
-|-3-|-5-|-2|-3|-3-|-3| x2
-|-3-|-5-|-2|-3|-3-|-3|
-|-3-|-5-|-2|-3|-3-|-3|

------------------------|-----------------|-------------------
------------------------|-----------------|-------------------
------------------------|-----------------|----------------5*-
-3----0-0---5-----0-0---|-33-33-33-33-333-|-33-33-33-33-33-5*-
-3----0-0---5-----0-0---|-33-33-33-33-333-|-33-33-33-33-33----
-3----0-0---5-----0-0---|-33-33-33-33-333-|-33-33-33-33-33----
 pm    . .          . .                ..               ..                    

------------------------|-----------------|
------------------------|-----------------|
------------------------|-----------------|
-3----0-0---5-----0-0---|-33-33-33-33-333-|
-3----0-0---5-----0-0---|-33-33-33-33-333-|
-3----0-0---5-----0-0---|-33-33-33-33-333-|
 pm   .           . .                ..                                     

------------------------
------------------------
------------------------ x2
-----------9-----5----7-
-----------9-----5----7-
--3-5-6-8--9-----5----7-
                                                                              
-----------------|-------------------|----------------|-------------------
-----------------|-------------------|----------------|-------------------
-----------------|----------------5*-|----------------|----------------5*-
-----------------|----------------5*-|----------------|----------------5*- x2
-33-33-33-33-333-|-33-33-33-33-33----|33-33-33-33-333-|-33-33-33-33-33----
-33-33-33-33-333-|-33-33-33-33-33----|33-33-33-33-333-|-33-33-33-33-33----
 pm           ..               ..                  ..               ..        

Chorus 3:
-|---|---|---|-----|-----|---|---|---|---|
-|---|---|---|-----|-----|---|---|---|---|
-|---|---|---|-----|-----|---|---|---|---|
-|-3-|-5-|-2-|-10/-|-----|-3-|-5-|-2-|-3-|
-|-3-|-5-|-2-|-10/-|-----|-3-|-5-|-2-|-3-|
-|-3-|-5-|-2-|-10/-|-----|-3-|-5-|-2-|-3-|

-|-----|-----|-----------------|-------------------------------------|
-|-----|-----|-----------------|-------------------------------------|
-|-----|-----|-----------------|-5-5-5-5/7-7-7-7/9-9-9-9/10-10-10-10-|
-|-3---|-5---|-----------------|-------------------------------------|
-|-3-x8|-5-x8|-33-33-33-33-333-|-3-3-3-3/5-5-5-5/7-7-7-7/8--8--8--8--|
-|-3---|-5---|-33-33-33-33-333-|-------------------------------------|
                                                                              
-|-----|-----|---
-|-----|-----|---
-|-----|-----|---
-|-3---|-5---|-2-
-|-3-x8|-5-x8|-2-
-|-3---|-5---|-2-

Комментарий автора:

Tablature Key:
/=slide up
=slide down
*=natural harmonic
pm=palm mute
 
 

Видео