Evanescence - Bring Me To Life, аккорды

Прокрутка
Тональность
Шрифт
100
it's the right version!!!!! the bass is soumixed..the bass follow drums!

intro no bass
verse  follow the guitar rymt 
G|----------------------------------------------|
D|----------------------------------------------|
A|----------------------------------------------|
D|--0-0-00-00-00-0-00-00-00-0-000-00-0-000-0-0--|

chorus                                                x2
G|------------------------------------------------------|
D|------2----2-------6------6---------------------------|
A|--------------------------------6----6----------------|
D|--2-----22----2/6----66------0----00-----2-2-2-2222---|

verse(no bass for 3second)
G|----------------------------------------------|
D|----------------------------------------------|
A|----------------------------------------------|
D|----0-00-0-0-00-0-00-0-0-00-0-00-00-000-0-00--|


chorus                                                x2
G|------------------------------------------------------|
D|------2----2-------6------6---------------------------|
A|--------------------------------6----6----------------|
D|--2-----22----2/6----66------0----00-----2-2-2-2222---|then finish this the bass play chorus two two times

chorus 2
G|------------------------------------------------|
D|------------------------------------------------|
A|------------------6~~---------------------------|
D|--2-----6~~~~~666------000-----2~~~2~22-2-------|

bridge                                              x2
G|----------------------------------------------------|
D|---------------77---7----5----55----5-4----44-------|
A|-------------7----7---------5----5------4-----4-----|
D|-2/4/5/9/7------------------------------------------|



G|-------------|
D|-------------|
A|-------------|
D|---2---------|

verse
G|----------------------------------------------|
D|----------------------------------------------|
A|----------------------------------------------|
D|--0-0-00-00-00-0-00-00-00-0-000-00-0-000-0-0--|


chorus                                                x2
G|------------------------------------------------------|
D|------2----2-------6------6---------------------------|
A|--------------------------------6----6----------------|
D|--2-----22----2/6----66------0----00-----2-2-2-2222---|

then finish with it
bridge 2
G|----------------------------------------------|
D|----------------------------------------------|
A|----------------------------------------------|
D|---2/4/5/9/10~~~~--7~~~~----------2~~~~-------|

it's easy when you learn that!
you have a problem contact me in: Pantasy_Start_Online@hotmail.com
 
 

Видео