Evanescence - Going Under, аккорды

Прокрутка
Тональность
Шрифт
100
----------------------------------------------------------------------------
			     GOING UNDER SOLO - Evanescence
----------------------------------------------------------------------------
Tabbed by: hottnsexxy
Email: the_itchyspaz@hotmail.com

Tuning: eBGDAE

e|---------------------|------------------------------|---^----------------|
B|---------------------|------------------------------|-12^-----12^12^12^>-|
G|-----------10-10-----|-9h10p9-----------------------|--------------------|
D|------10-12------12~-|---------12-10-12-10----10-12-|--------------------|
A|-10-12---------------|---------------------12-------|--------------------|
E|---------------------|------------------------------|--------------------|

e|-----------------------------------------------------|
B|12h13h12--10h12h10-----------------------------------|
G|-------------------12-10----------10----10-10~~~~~~~~|
D|-------------------------12-10-12----12--------------|
A|-----------------------------------------------------|
E|-----------------------------------------------------|


| ^  bend
| h  hammer-on
| p  pull-off
| ~  vibrato
| ^ 
  ^ big bend!
| ^> longg bend
============================================================================
 
 

Видео