Evanescence - Going Under, аккорды

Прокрутка
Тональность
Шрифт
100
Tuning: B E A D

Nothing Till Second Verse (0:25)

-Second Verse-
D|--------|
A|--------|
E|--------| (x8)
B|-00-000-|

-Chrous- (0:58)
D|-------------------------------------------|
A|----------555--------------------5554------|
E|-----7033-----5532---7-7-33-----------5532-|
B|-0-0---------------0--------33-3-----------|

D|-----------------------------------------------------|
A|------------30-5-5-55---------------------5----------|
E|---7-77-03-3---------05-532---7-703-320-------555-32-|
B|-0--------------------------0-----------3---3--------|

-Bridge-
D|-----------------------------------------------------------------|
A|---------2-------------------------------------------------------|
E|-333-33-3-3-2222-222--------------------22-3333-33-332-2-222-222-|
B|---------------------0000-0000-0000-00-0-------------------------|

-Last Chorus-
D|----------------------------------|
A|---------------5554---------------|
E|---7-7-3-3----------55-32-77--2---|
B|-0--------33-3-----------------00-|
 
 

Видео