Evanescence - My Immortal, аккорды

Прокрутка
Тональность
Шрифт
100
Piano intro
  A                   C#m
e----------5-------------------4--------
B------5-------5-----------5-------5----
G----6---6---6---6-------6---6---6---6—-  x2
D---------------------6-----------------
A-7-------------------------------------
E---------------------------------------

Verse:
Main riff
  A                   C#m
e----------5-------------------4--------
B------5-------5-----------5-------5----
G----6---6---6---6-------6---6---6---6—-   x4
D---------------------6-----------------
A-7-------------------------------------
E-5-------------------------------------

Pre-Chorus: (You can play it picking some notes to create the piano effect)
F#m                         C#m
   These wounds won't seem to heal
F#m                     C#m
    this pain is just too real
F#m                        E             E*
there's just too much that time cannot erase

Chorus: (You can play it picking some notes to create the piano effect)

F#m      D         E         C#m
When you cried I'd wipe away all of your tears
F#m        D          E          C#m
When you'd scream I'd fight away all of your fears
F#m      D         E            C#m
And I've held your hand through all of these years
F#m        D     E         C#m    Main riff x2
but you still have all of me

Verse:
Main riff
  A                   C#m
e----------5-------------------4--------
B------5-------5-----------5-------5----
G----6---6---6---6-------6---6---6---6—-   x4
D---------------------6-----------------
A-7-------------------------------------
E-5-------------------------------------

Pre-Chorus
F#m                         C#m
   These wounds won't seem to heal
F#m                     C#m
    this pain is just too real
F#m                        E             E*
there's just too much that time cannot erase

Chorus: (You can play it picking some notes to create the piano effect)
F#m      D         E         C#m
When you cried I'd wipe away all of your tears
F#m        D          E          C#m
When you'd scream I'd fight away all of your fears
F#m      D         E            C#m
And I've held your hand through all of these years
F#m        D     E        C#m  Main riff x2
but you still have all of me

Final Interlude: (You can play it picking some notes to create the piano effect)
D             F#m              E                 D
I've tried so hard to tell myself that you're gone
F#m                     C#m
but though you're still with me
D             E           F#m   D   E   C#m
I've been alone all along

Chorus:
F#m      D         E         C#m
When you cried I'd wipe away all of your tears
F#m        D          E          C#m
When you'd scream I'd fight away all of your fears
F#m      D         E            C#m
And I've held your hand through all of these years
F#m        D     E        C#m  Main riff x2
but you still have all of me

Комментарий автора:

If you want you can play the main riff like this (for beginners):
  A                   C#m
e----------0-------------------4--------
B------2-------2-----------5-------5----
G----2---2---2---2-------6---6---6---6—-   x4
D---------------------6-----------------
A-0-------------------------------------
E---------------------------------------

     EADGEe
  A: 577655  or  -02220
C#m: x46654
F#m: 244222
  D: -00232
  E: 022100
 E*: 022120
 
 

Видео