Evanescence - My Immortal, аккорды

Прокрутка
Тональность
Шрифт
100
Intro + Verse:
E|-----------------|-----------------|-----------------|-----------|
B|---------2-------|---------2-------|-----------------|---------2-|
G|-----2-------2---|-----0-------0---|-----2---4---2---|-----2-----|
D|---2---2---2---2-|---2---2---2---2-|---2---2---2---2-|---2---2---|
A|-4---------------|-4---------------|-4---------------|-4---------|
E|-----------------|-----------------|-----------------|-----------|

Pre-Chorus:
E|-----------------|-------------|---------------|---------|
B|-----------------|-------------|-----0-1-------|---------|
G|-----0---------0-|-2---------0-|-2-2-----0-----|---------|
D|-2-----4-2---4---|---2-2-2-3---|-------2---2-3-|-2-2-2---|
A|---4-------4-----|-4-----------|-4-------4-----|-2-2-2---|
E|-----------------|---5-3-------|---------------|-5-5-5-3-|
 
 

Видео