Evanescence - My Immortal, аккорды

Прокрутка
Тональность
Шрифт
100
Verse:
E----------------------------|
B----------2---------------5-|
G-----2-----2----------6-----|
D---2---2----2-------6---6---| x6
A-0------------0---4---------|
E----------------------------|

E-----------------------------------------------------------------
B-2---2--x-x---5---5--x-x----2---2--x-x---5---5--x-x---2---2--x-x-
G-2---2--x-x---6---6--x-x----2---2--x-x---6---6--x-x---2---2--x-x-
D-4---4--x-x---6---6--x-x----4---4--x-x---6---6--x-x---4---4--x-x-
A-4---4--x-x---4---4--x-x----4---4--x-x---4---4--x-x---4---4--x-x-
E-2---2--x-x-----------------2---2--x-x----------------2---2--x-x-

E--------------0--0--0--0--0------
B-5---5--x-x---0--0--0--0--0--x-x-
G-6---6--x-x---1--1--1--1--1--x-x-
D-6---6--x-x---2--2--2--2--2--x-x-
A-4---4--x-x---2--2--2--2--2--x-x-
E-----------------------------x-x-
 
Chorus:
E---------------2---2--0--0--0---0--0--0--------------
B-2---2--x-x----3---3--0--0--0---0--0--0---5---5--x-x-
G-2---2--x-x----2---2--0--0--1---1--0--0---6---6--x-x-
D-4---4--x-x----0---0--------2---2---------6---6--x-x-
A-4---4--x-x----0---0--------2---2---------4---4--x-x-
E-2---2--x-x------------------------------------------

Chorus:
E---------------2---2--0--0--0----------------
B-2---2--x-x----3---3--0--0--0------0---------
G-2---2--x-x----2---2--0--0--1--------1-------
D-4---4--x-x----0---0--------2----------2-----
A-4---4--x-x----0---0--------2------------2---
E-2---2--x-x--------------------------------0-

Repeat all of this for 2nd verse

Then:
E---------------------------------------------------------
B---------3-------------3---------------------------------
G------2---2--------2----2------------2------------2------
D----0--0---0-----0--0-----0--------4--4-------4------4---
A-0-------------0------------------4-----4----4-4------4--
E---------------------------------2---------2-----------2-

E------------------------------------------------------------------
B----------------------------------------------3------------3------
G-----------1---------------1--------------2----2-------2-----2----
D-------2-----2---------2----2------------0-0----0-----0-0-----0---
A-----2--2------2-----2--2-----2------0------------0-------------0-
E-0-----------------0------------0---------------------------------

E-------------------------------------------------------
B---------------------------------------5-----------4---
G--------2----------------2---------6----6------6----6--
D------4---4--------4------4-------6-6----6----6-6----6-
A----4-------4----4--4------4-----4---------4-----------
E-2-------------2-------------2-------------------------

E-----------------------------------------------------
B-----------3------------3----------------------------
G-------2----2-------2----2-----------1---------------
D-----0--0----0-----0-0----0------2----2----2--2--x-x-
A-0------------0-----------------2-2----2--2--2---x-x-
E-------------------------------0---------0-------x-x-

Then the distorted guitars come in:
E----------------2---2--0--0---0---0--0--0--------------
B----------------3---3--0--0---0---0--0--0---5---5--x-x-
G----------------2---2--0--0---1---1--0--0---6---6--x-x-
D-4---4----------0---0---------2---2---------6---6--x-x-
A-4---4--x-x-----0---0---------2---2---------4---4--x-x-
E-2---2--x-x--------------------------------------------
 
 

Видео