Evanescence - End Of The Dream, аккорды

Прокрутка
Тональность
Шрифт
100
Tuning: (low to high) A# F A# D# G C
 
Tabbed by: FireReaverX


Intro
C |------------------------------------------------------------------|
G |------------------------------------------------------------------|
D#|------------------------------------------------------------------|
A#|-5--/7-------5--/7-------5--/7-------5--/7-------5---------------| 2x
F |-3--/5-------3--/5-------3--/5-------3--/5-----------5-----------|
A#|---------0-----------0-----------0-----------0-----------5-------|


Verse
C |-0----------------------------------------------------------------|
G |-3----------------------------------------------------------------|
D#|-2----------------------------------------------------------------|
A#|-0----------------------------------------------------------------|
F |-0----------------------------------------------------------------|
A#|-0----------------------------------------------------------------|

(empty) x3

C |-0----------------------------------------------------------------|
G |-3----------------------------------------------------------------|
D#|-2----------------------------------------------------------------|
A#|-0----------------------------------------------------------------|
F |-0----------------------------------------------------------------|
A#|-0----------------------------------------------------------------|

C |-0----------------------------------------------------------------|
G |-1----------------------------------------------------------------|
D#|-2----------------------------------------------------------------|
A#|-0----------------------------------------------------------------|
F |-0----------------------------------------------------------------|
A#|-0----------------------------------------------------------------|

C |-0--------------------------------8------------------------------|
G |-3----------------------------------------------------------------|
D#|-3----------------------------------------------------------------|
A#|-0----------------------------------------------------------------|
F |-0----------------------------------------------------------------|
A#|-0----------------------------------------------------------------|

C |-------------------2----------------------------------------------|
G |-------------3----------------------------------------------------|
D#|-------2----------------------------------------------------------|
A#|-0----------------------------------------------------------------|
F |------------------------------------------------------------------|
A#|------------------------------------------------------------------|


Pre-chorus
C |-----------------------------------------------------------------|
G |-----------------------------------------------------------------|
D#|-----------------------------------------------------------------|
A#|-8---8---8---8---8---8---8---8---7---7---7---7---7---7---7---7---|
F |-8---8---8---8---8---8---8---8---7---7---7---7---7---7---7---7---|
A#|-8---8---8---8---8---8---8---8---7---7---7---7---7---7---7---7---|

C |-----------------------------------------------------------------|
G |-----------------------------------------------------------------|
D#|-----------------------------------------------------------------|
A#|-----------------------------------------------------------------|
F |-3---5-------8---5-------3---5-------3---5-------8---5---3-------|
A#|---------0-0---------0-0---------0-0---------0-0-----------------|
        . .      . .      . .      . .

C |-----------------------------------------------------------------|
G |-----------------------------------------------------------------|
D#|-----------------------------------------------------------------|
A#|-8---8---8---8---8---8---8---8---7---7---7---7---7---7---7---7---|
F |-8---8---8---8---8---8---8---8---7---7---7---7---7---7---7---7---|
A#|-8---8---8---8---8---8---8---8---7---7---7---7---7---7---7---7---|


Chorus
C |-----------------------------------------------------------------|
G |-----------------------------------------------------------------|
D#|-----------------------------------------------------------------|
A#|-0-------0---3-----------3---3---7---7---7---7---7---7---7---7---|
F |-0-------0---3-----------3---3---7---7---7---7---7---7---7---7---|
A#|-0-------0---3-----------3---3---7---7---7---7---7---7---7---7---|

C |----------------------------------------------------------------------|
G |----------------------------------------------------------------------|
D#|----------------------------------------------------------------------|
A#|-8-------8---8-----------8---8---5-------5---10---10---------10-------|
F |-8-------8---8-----------8---8---5-------5---10---10---------10-------|
A#|-8-------8---8-----------8---8---5-------5---10---10---10-10-10-------|
                                        . .

C |-----------------------------------------------------------------|
G |-----------------------------------------------------------------|
D#|-----------------------------------------------------------------|
A#|-0-------0---3-----------3---3---7---7---7---7---7---7---7---7---|
F |-0-------0---3-----------3---3---7---7---7---7---7---7---7---7---|
A#|-0-------0---3-----------3---3---7---7---7---7---7---7---7---7---|

C |-----------------------------------------------------------------|
G |-----------------------------------------------------------------|
D#|-----------------------------------------------------------------|
A#|-8-------8---8-----------8---8---5---5---5---5---5---5---5---5---|
F |-8-------8---8-----------8---8---5---5---5---5---5---5---5---5---|
A#|-8-------8---8-----------8---8---5---5---5---5---5---5---5---5---|


Transition
C |-----------------------------------------------------------------|
G |-----------------------------------------------------------------|
D#|-----------------------------------------------------------------|
A#|-0-----0-----0-----0-----0-0-----0-----0-----0-----0-----0-0-----| 2x
F |-0-----0-----0-----0-----0-0-----0-----0-----0-----0-----0-0-----|
A#|-0-----0-0-0-0-----0-0-0-0-0-0-0-0-----0-0-0-0-----0-0-0-0-0-0-0-|
        . .      . .   . .      . .      . .   . .


Verse / Intro riff
Pre-chorus
Chorus


Bridge
C |-----------------------------------------------------------------|
G |-----------------------------------------------------------------|
D#|-----------------------------------------------------------------|
A#|-----------------------------------------------------------------|
F |-----------------------------------------------------------------|
A#|-0---00000---0---0-0---0-0---0-------00000---0---0-0---0-0-------|
   .  .....  .  . .  . .  .     .....  .  . .  . .

C |-----------------------------------------------------------------|
G |-----------------------------------------------------------------|
D#|-----------------------------------------------------------------|
A#|---------------------------------8-----8-----5-----5-----5-------|
F |---------------------------------8-----8-----5-----5-----5-------|
A#|-0---00000---0---0-0---0-0---0-0-8-----8-----5-----5-5-5-5---5-5-|
   .  .....  .  . .  . .  . .              . .   . .

C |-----------------------------------------------------------|
G |-----------------------------------------------------------|
D#|-----------------------------------------------------------|
A#|-----------------------------------------------------------|
F |-----------------------------------------------------------|
A#|-0---00000---0---0-0---0-0---0-------00000---0---0-0---0-0-|
   .  .....  .  . .  . .  .     .....  .  . .  . .

C |-------------------------------------------------------------------------|
G |-------------------------------------------------------------------------|
D#|-------------------------------------------------------------------------|
A#|-8-----8-----8-----8-----8-------10---10---10---10---10---10---10---10---|
F |-8-----8-----8-----8-----8-------10---10---10---10---10---10---10---10---|
A#|-8-----8-8-8-8-----8-8-8-8---8-8-10---10---10---10---10---10---10---10---|
        . .      . .   . .


Chorus


Ending
C |-----------------------------------------------------------|
G |-----------------------------------------------------------|
D#|-----------------------------------------------------------|
A#|-----------------------------------------------------------|
F |-----------------------------------------------------------|
A#|-0---00000---0---0-0---0-0---0-------00000---0---0-0---0-0-|

I found a grave
Brushed off the face
Felt your light
and I remember why I know this place

I found a bird
Closing her eyes
One last time
And I wonder if she dreamed like me

Well, as much as it hurts,
Ain’t it wonderful to feel?
So go on and break your wings
Follow your heart
Till it bleeds
As we run towards the end of the dream

I’m not afraid
I push through the pain
And I’m on fire
I remember how to breathe again

As much as it hurts,
Ain’t it wonderful to feel?

So go on and break your wings
Follow your heart
Till it bleeds
As we run towards the end of the dream

Why must we fall apart to understand how to fly?
I will find a way
Even without wings
Follow your heart
Till it bleeds
As we run towards the end of the dream

Follow your heart
Till it bleeds
And we’ve gone to the end of the dream