Face - Baby (Я не достоин даже тени твоей), аккорды

Прокрутка
Тональность
Шрифт
100
Вступление 1:
           Fm(VIII)         Cm(VIII)        Fm               Cm            Fm                Cm   
1)-----------8----------------------------------8-----------------------------11-8--------------------
2)---------9---9-------------------8----------9---9----------------8--------9------9---------------8--
3)------10-------10--------------8----------10------10-----------8--------10---------10----------8----
4)---10------------10---------10---------10-----------10------10--------10--------------------10------
5)-8------------------8----10---------------------------8---10--------8--------------------10---------
6)-----------------------8-------------9------------------8------------------------------8------------

       Fm                 Cm
1)----------8----------------------
2)--------9---9------------------8-            
3)------10------10-------------8---
4)---10-----------10-------10------
5)-------------------8---10--------
6)-9-------------------8-----------

Вступление 2:
      Fm(VIII)      Cm(VIII)     C#(IX)     A#m(VI) Cm(VIII)
1)---------8-----------------------------------------------
2)---------9------------8-------------9--------------------
3)------10--------------8------------10---------6-------8--
4)---10--------------10-----------11-----------8------10---
5)-8--------------10-----------11------------8------10-----
6)--------------8------------9-------------6------8--------

Куплет:
Fm(VIII)          Cm(VIII)
Она закрыла инстаграм, ла-ла-ла
Fm(VIII)          Cm(VIII)
Чтоб я не мог за ней следить, да-да-да
Fm(VIII)          Cm(VIII)
И удалила свой ВК, свой ВК
Fm(VIII)          Cm(VIII)
Теперь не знаю, где мне жить

Припев:
Fm(VIII)   Cm(VIII)
А-а-а-а, baby,
Fm(VIII)          Cm(VIII)
Я не достоин даже тени твоей
Fm(VIII)          Cm(VIII)
Я не достоин даже жизни моей
C#(X)                A#m(VI)       Cm(VIII) 
Куда мне теперь в окно, либо в твою дверь?
Fm(VIII)   Cm(VIII)
А-а-а-а, baby, 
Fm(VIII)          Cm(VIII)
Я не достоин даже тени твоей
Fm(VIII)          Cm(VIII)
Я не достоин даже смерти моей
C#(X)                A#m(VI)       Cm(VIII) 
Куда мне теперь в окно, либо в твою дверь?

Пригрыш:
Fm(VIII)        Cm(VIII)
Baby, baby, baby, baby
Fm(VIII) Cm(VIII)
No, baby
А-а-а-а, baby

Куплет:
Fm(VIII)        Cm(VIII)
Сигарета за сигаретой
Fm(VIII)          Cm(VIII)
Так проходят зима и лето
Fm(VIII)          Cm(VIII)
Так проходят весна и осень
Fm(VIII)          Cm(VIII)
Курить я бросил, но тебя бы никогда не бросил

Припев:
Fm(VIII)   Cm(VIII)
А-а-а-а, baby,
Fm(VIII)          Cm(VIII)
Я не достоин даже тени твоей
Fm(VIII)          Cm(VIII)
Я не достоин даже жизни моей
C#(X)                A#m(VI)       Cm(VIII) 
Куда мне теперь в окно, либо в твою дверь?
Fm(VIII)   Cm(VIII)
А-а-а-а, baby, 
Fm(VIII)          Cm(VIII)
Я не достоин даже тени твоей
Fm(VIII)          Cm(VIII)
Я не достоин даже смерти моей
C#(X)                A#m(VI)       Cm(VIII) 
Куда мне теперь в окно, либо в твою дверь?

Кода:
Fm(VIII)  Cm(VIII)
Ты моя baby,
Fm(VIII) Cm(VIII)
Baby,
Fm(VIII)  Cm(VIII)
Ты моя baby,
А-а-а-а, baby
Fm(VIII) Cm(VIII)
Baby
Fm(VIII) Cm(VIII)
Baby
Fm(VIII) Cm(VIII)
Baby
А-а-а-а, baby 
Fm(VIII) Cm(VIII)
Ты моя baby 
Fm(VIII) Cm(VIII)
Ты моя baby 
Fm(VIII) Cm(VIII)
Ты моя baby 
А-а-а-а, baby.

Комментарий автора:

Бой: V v ^ ^ v v ^. Эта песня есть в двух вариантах (1- начинается с куплета, 2-с припева). 
Тут расписаны оба варианта.
Аккорды к каждому варианту песни находятся над табами.
 
 
Свернуть Распечатать

Видео