Foo Fighters - White Limo, аккорды

Прокрутка
Тональность
Шрифт
100
Intro 
Substitute the last chord with the one between the bars 
at the end of the 2nd run through.
e||-----------------------------------------------------------------------|-----||
B||-----------------------------------------------------------------------|-----||
G||------8----------8---------------------8----------8--------------------|-----||  x2
D||----------10---------10---9--7-------------10--------------------------|-10--||
A||------------------------------------------------------7/9-9-10-9-7-10-|--8--||
E||--7-7---7----7-7---7----7---7--7-7-7-7---7----7-7---7-5/7-7--8-7-5--8-|-----||
 |---------------------pm low E------------------------|

Verse
Guitar 1 - Play intro
Guitar 2:
Remember to subsitute the last chord with the one 
between the bars at the end of the 2nd run through.
e||--------------------------------------------------------------------|------||
B||--------------------------------------------------------------------|------||
G||--------------------------------------------------------------------|------||
D||--------------------------------------------------------------------|--10--||  x4
A||--9-9-9-9-9-9-9-9-9-9-9-9-9-9-9-9-9-9-9-9-9-9-9-9--7/9-9-10-9-7-10--|---8--||
E||--7-7-7-7-7-7-7-7-7-7-7-7-7-7-7-7-7-7-7-7-7-7-7-7--5/7-7--8-7-5--8--|------||

Chorus
e||------------------------------------------------------------------||
B||------------------------------------------------------------------||
G||------------------------------------------------------------------||
D||------------------7---7-7-7-7-7-----------------------------------||   x2
A||--9---9-9-9-9-9---5---5-5-5-5-5---8---8-8-8-8-8---5---5-5-5-5-5---||
E||--7---7-7-7-7-7-------------------6---6-6-6-6-6---3---3-3-3-3-3---||

Guitar 1:
e||-------------------------------------------------------||
B||-------------------------------------------------------||
G||-------------------------------------------------------||
D||----------------7--7----------------------------------||
A||--9--9---------5--5---------8--8---------5--5--5--5--||
E||--7--7-----------------------6--6---------3--3--3--3--||

e||-------------------------------------------------------------||
B||-------------------------------------------------------------||
G||-------------------------------------------------------------||
D||----------------7--7--------------------2-------------------||
A||--9--9---------5--5---------7--7-7-7---2--7/9-9-10-9-7-10--||
E||--7--7-----------------------5--5-5-5---0--5/7-7--8-7-5--8--||

Guitar 2:
This Gutiar has some awesome affect on it, but im not sure exactly what.
e||--------------------------------------------------------||
B||-----------------------7--------------------------------||
G||---------8-----------------7--------7-------------------||
D||-------------9--------------------------8--------9------||
A||----------------------------------------------------10--||
E||--------------------------------------------------------||

e||--------------------------------------------------------||
B||-----------------------7--------------------------------||
G||---------8-----------------7--------6-------------------||
D||-------------9--------------------------7---------------||
A||--------------------------------------------------------||
E||--------------------------------------------------------||

Verse 2
Guitar 1 - Play intro
Guitar 2:
Remember to subsitute the last chord with the one 
between the bars at the end of the 2nd run through.
e||--------------------------------------------------------------------|------||
B||--------------------------------------------------------------------|------||
G||--------------------------------------------------------------------|------||
D||----------------------------------------------------------------10--|------||  x6
A||--9-9-9-9-9-9-9-9-9-9-9-9-9-9-9-9-9-9-9-9-9-9-9-9--7/9-9-109-9--8--|--10--||
E||--7-7-7-7-7-7-7-7-7-7-7-7-7-7-7-7-7-7-7-7-7-7-7-7--5/7-7--8-7-----|---8--||

Chorus:
e||------------------------------------------------------------------||
B||------------------------------------------------------------------||
G||------------------------------------------------------------------||
D||------------------7---7-7-7-7-7-----------------------------------||   x2
A||--9---9-9-9-9-9---5---5-5-5-5-5---8---8-8-8-8-8---5---5-5-5-5-5---||
E||--7---7-7-7-7-7-------------------6---6-6-6-6-6---3---3-3-3-3-3---||

Guitar 1:
Substitute the last chord with the riff between the bars 
at the end of the 2nd run through.
e||-------------------------------------------------------||
B||-------------------------------------------------------||
G||-------------------------------------------------------||
D||----------------7--7----------------------------------||
A||--9--9---------5--5---------8--8---------5--5--5--5--||
E||--7--7-----------------------6--6---------3--3--3--3--||
                                                            x2
e||---------------------------------------------------------|-----------------------||
B||---------------------------------------------------------|-----------------------||
G||---------------------------------------------------------|-----------------------||
D||----------------7--7--------------------2--2-2-2-2-2-2--|---2-------------------||
A||--9--9---------5--5---------7--7-7-7---2--2-2-2-2-2-2--|---2--7/9-9-10-9-7-10--||
E||--7--7-----------------------5--5-5-5---0--0-0-0-0-0-0--|---0--5/7-7--8-7-5--8--||

Guitar 2:
This Guitar has some awesome affect on it, 
but im not sure exactly what.
e||--------------------------------------------------------||
B||-----------------------7--------------------------------||
G||---------8-----------------7--------7-------------------||
D||-------------9--------------------------8--------9------||
A||----------------------------------------------------10--||
E||--------------------------------------------------------||

e||--------------------------------------------------------||
B||-----------------------7--------------------------------||
G||---------8-----------------7--------6-------------------||
D||-------------9--------------------------7--------6------||
A||-----------------------------------------------------7--||
E||--------------------------------------------------------||

Verse 2
Bridge
e||--------------------------------------------------------------||
B||--------------------------------------------------------------||
G||----------------1--1-1-1-1-1--4--4-4-4-4-4-4-4-4-4-4-4-4-4-4--||
D||--7--7-7-7-7-7--2--2-2-2-2-2--4--4-4-4-4-4-4-4-4-4-4-4-4-4-4--|| x3
A||--7--7-7-7-7-7--2--2-2-2-2-2--2--2-2-2-2-2-2-2-2-2-2-2-2-2-2--||
E||--5--5-5-5-5-5--0--0-0-0-0-0----------------------------------||

e||------------------------------------------------------------------||
B||------------------------------------------------------------------||
G||----------------1--1-1-1-1-1--4--4-4-4-4-4-4-4-4------------------||
D||--7--7-7-7-7-7--2--2-2-2-2-2--4--4-4-4-4-4-4-4-4------------------||
A||--7--7-7-7-7-7--2--2-2-2-2-2--2--2-2-2-2-2-2-2-2-7/9-9-10-9-7-10--||
E||--5--5-5-5-5-5--0--0-0-0-0-0---------------------5/7-7--8-7-5--8--||

Intro:
Substitute the last chord with the one between the bars 
at the end of the 2nd run through.
Guitar 1
e||-----------------------------------------------------------------------|------||
B||-----------------------------------------------------------------------|------||
G||------8----------8---------------------8----------8--------------------|------||
D||----------10---------10---9--7-------------10----------------------10--|------||   x2
A||------------------------------------------------------7/9-9-10-9-7--8--|--10--||
E||--7-7---7----7-7---7----7---7--7-7-7-7---7----7-7---7-5/7-7--8-7-5-----|---8--||
 |---------------------pm low E------------------------|

Guitar 2
Played with Guitar 1 on the second run through.
e||-----------------------------------------------------||
B||-----------------------------------------------------||
G||-----------------------------------------------------||
D||-----------------------------------------------------||
A||-----------------------------------------------------||
E||--7-7-7-7-7-7-7-7-7-7-7-7-7-7-7-7-7-7-7-7-7-7-7-7-7--||

Outro(Verse):
Guitar 1 - Play intro (quieter)
Guitar 2:
e||----------------------------------------------------------------------||
B||----------------------------------------------------------------------||
G||----------------------------------------------------------------------||
D||--10--------------------------------------------------------------10--||
A||---8--9-9-9-9-9-9-9-9-9-9-9-9-9-9-9-9-9-9-9-9-9-9-9--7/9-9-10-9-7--8--||
E||------7-7-7-7-7-7-7-7-7-7-7-7-7-7-7-7-7-7-7-7-7-7-7--5/7-7--8-7-5-----||

e||-----------------------------------------------------------------||
B||-----------------------------------------------------------------||
G||-----------------------------------------------------------------||
D||-----------------------------------------------------------------||
A||--9-9-9-9-9-9-9-9-9-9-9-9-9-9-9-9-9-9-9-9-9-9-9--7/9-9-10-9-7-9--||
E||--7-7-7-7-7-7-7-7-7-7-7-7-7-7-7-7-7-7-7-7-7-7-7--5/7-7--8-7-5-7--||

e||---------------------------------------------------||
B||---------------------------------------------------||
G||---------------------------------------------------||
D||---------------------------------------------------||
A||--7/9-9-10-9-7-9---7/9-9-10-9-7-9---7/9-9-10-9-7---||
E||--5/7-7--8-7-5-7---5/7-7--8-7-5-7---5/7-7--8-7-5---||

Hold and use wammy bar on last chord.

Gutiar 1 plays something like this in the second row 
of chords for Guitar 2:
e||-----------------------------------------------------------------||
B||-----------------------------------------------------------------||
G||--------------------------------------------------------------2--||
D||-----------------------------------------------------------------||
A||--9-9-9-9-9-9-9-9-9-9-9-9-9-9-9-9-9-9-9-9-9-9-9------------------||
E||--7-7-7-7-7-7-7-7-7-7-7-7-7-7-7-7-7-7-7-7-7-7-7------------------||

e||----------------------------------------------------||
B||----------------------------------------------------||
G||---------------2----------------2-------------------||
D||----------------------------------------------------||
A||----------------------------------------------------||
E||----------------------------------------------------||
the notes should line up with the last 9,7 in the first 3 
end riffs (if that makes sense).
Ive tried to line them up for you.

NOTES:
The second guitar in the Bridge does some awesome stuff but i
dont know exactly what it is.
You can replace one of the riffs throughout the song with:
e||----------------||
B||----------------||
G||--------------5-||
D||--2-4-4-5-4-2-3-||
A||--0-2-2-3-2-0---||
E||----------------|| ...depends what you prefer.
 
 

Видео