Foo Fighters - Walking After You, аккорды

Прокрутка
Тональность
Шрифт
100
Intro/Fill 1 
(Gtr. 1) 
   E 
e|-0------||-0----------| 
B|--0-----||---0---0----| 
G|---1----||-----1------| (Upstroke on the E) 
D|----2---||----------2-| 
A|-----2--||----------2-| 
E|------0-||----------0-| 
 
(Gtr. 2) 
N.С.  
e|-0---2---4---0---5---4---2---0---4-| 
B|---0---0---0---0---0---0---0---0---| 
G|-1---2---4---1---6---4---2---1---4-| 
D|-----------------------------------| 
A|-----------------------------------| 
E|-----------------------------------| 

Verse:
   E    E5/G#    A  Bbdim     A  B7/E
e|-0------0------0----0-------0----0-| 
B|-0------0------2----2-------2----0-| 
G|-1------4------2----3-------2----2-| 
D|-2------2------2----2-------2----1-| 
A|-2------x------0----1-------0----2-| 
E|-0------4--------------------------| 

Tonight I'm tangled in my  
Blanket of clouds  
Dreaming aloud  
Things just won't do without you  
Matter of fact  
I'm on your back  
I'm on your back  
I'm on your back  

Play Fill 2  

Play Chorus 1 over:  
Chorus 1 
  F#7/B Asus2     E  
e|-0-----------0-------0-| 
B|-0-----------0-------0-| 
G|-3-----------2-------1-| 
D|-4-----------2-------2-| 
A|-4-----------0-------2-| 
E|-2-------------------0-| 

If you walk out on me  
I'm walking after you  
If you walk out on me  
I'm walking after you  

Play Fill 1  

Play Verse over:  
   E    E5/G#    A  Bbdim     A  B7/E  
e|-0------0------0----0-------0----0-| 
B|-0------0------2----2-------2----0-| 
G|-1------4------2----3-------2----2-| 
D|-2------2------2----2-------2----1-| 
A|-2------x------0----1-------0----2-| 
E|-0------4--------------------------| 

If you'd accept surrender  
I'll give up some more  
Weren't you adored?  
I cannot be without you  
Matter of fact  
I'm on your back  
I'm on your back  
I'm on your back  

Play Fill 2  

Play Chorus 1 over:  
Chorus 1 
  F#7/B Asus2     E  
e|-0-----------0-------0-| 
B|-0-----------0-------0-| 
G|-3-----------2-------1-| 
D|-4-----------2-------2-| 
A|-4-----------0-------2-| 
E|-2-------------------0-| 
If you walk out on me  
I'm walking after you  
If you walk out on me  
I'm walking after you  

Play Chorus 2 over:  
   C#m   Asus2 F#7/B  
e|-(0)-----0-------0-| 
B|--5------0-------0-| 
G|--6------2-------3-| 
D|--6------2-------4-| 
A|--4------0-------4-| 
E|-----------------2-| 

Another heart is cracked  
In two  
I'm on your back  

Play Interlude  

Play Verse over:  
   E    E5/G#    A  Bbdim     A  B7/E
e|-0------0------0----0-------0----0-| 
B|-0------0------2----2-------2----0-| 
G|-1------4------2----3-------2----2-| 
D|-2------2------2----2-------2----1-| 
A|-2------x------0----1-------0----2-| 
E|-0------4--------------------------| 

I cannot be without you  
Matter of fact  
I'm on your back  

Play Fill 2  

Play Chorus 1 over:  
Chorus 1 
  F#7/B Asus2     E  
e|-0-----------0-------0-| 
B|-0-----------0-------0-| 
G|-3-----------2-------1-| 
D|-4-----------2-------2-| 
A|-4-----------0-------2-| 
E|-2-------------------0-| 

If you walk out on me  
I'm walking after you  
If you walk out on me  
I'm walking after you  
If you walk out on me  
I'm walking after you  

Play Chorus 2 over:  
Chorus 2  
   C#m   Asus2 F#7/B
e|-(0)-----0-------0-| 
B|--5------0-------0-| 
G|--6------2-------3-| 
D|--6------2-------4-| 
A|--4------0-------4-| 
E|-----------------2-| 

Another heart is cracked  
In two  
I'm on your back  

Play Ending
 
 

Видео