Foo Fighters - Learn To Fly, аккорды

Прокрутка
Тональность
Шрифт
100
Intro:
     B5             C#5           B5
E|-----------------------------------------------------|
B|-----------------------------------------------------|
G|--4--4-4-4-4-4-4/6-6-6-6-6-6-64-4-4-4-4-4-4-4-4-4-4--|
D|--4--4-4-4-4-4-4/6-6-6-6-6-6-64-4-4-4-4-4-4-4-4-4-4--|
A|--2--2-2-2-2-2-2/4-4-4-4-4-4-42-2-2-2-2-2-2-2-2-2-2--|
E|-----------------------------------------------------|

                                                                  OR
E|-----------------------------------------------------|---------------------|--------|
B|-----------------------------------------------------|---------------------|--------|
G|-4--4--4--4---4--4/6--6--6--6---6--6h7p6--4--4--4--4-|-4--4--4--4--4--4--4-|--2--1--|
D|-----------------------------------------------------|---------------------|--------|
A|-----------------------------------------------------|---------------------|--------|
E|-----------------------------------------------------|---------------------|--------|

Verse:
E|------------2-----------0------------0-----------0--|
B|----------------------------------------------------|
G|---------4-----------4------------------------------|
D|------4-----------4---------------4-----------4-----|
A|--2------------0---------------2-----------2--------|
E|----------------------------0-----------0-----------|

Run and tell all of the angels
This could take all night
I think I'll need the devil to help me
Get things right

Hook me up a new revolution
'Cause this one is a lie 
We sat around laughing and watching
The last one die

Chorus:
        B5                    C#5
Now I'm looking to the sky to save me
B5
Looking for a sign of life
B5                      C#5
Looking for something to help me 
         B5
Burn out bright

B5                         C#5
I'm looking for a complication
B5
Looking 'cause I'm tired of trying
G5                A5
Make my way back home
                B5
When I learn to fly

     B5             C#5           B5
E|-----------------------------------------------------|
B|-----------------------------------------------------|
G|--4--4-4-4-4-4-4/6-6-6-6-6-6-64-4-4-4-4-4-4-4-4-4-4--|
D|--4--4-4-4-4-4-4/6-6-6-6-6-6-64-4-4-4-4-4-4-4-4-4-4--|
A|--2--2-2-2-2-2-2/4-4-4-4-4-4-42-2-2-2-2-2-2-2-2-2-2--|
E|-----------------------------------------------------|

                                                                  OR
E|-----------------------------------------------------|---------------------|--------|
B|-----------------------------------------------------|---------------------|--------|
G|-4--4--4--4---4--4/6--6--6--6---6--6h7p6--4--4--4--4-|-4--4--4--4--4--4--4-|--2--1--|
D|-----------------------------------------------------|---------------------|--------|
A|-----------------------------------------------------|---------------------|--------|
E|-----------------------------------------------------|---------------------|--------|

Verse:
E|------------2-----------0------------0-----------0--|
B|----------------------------------------------------|
G|---------4-----------4------------------------------|
D|------4-----------4---------------4-----------4-----|
A|--2------------0---------------2-----------2--------|
E|----------------------------0-----------0-----------|

Think I'm dying as impatient
It couldn't wait one night
Give it all away if you give me 
One last try

We'll live happily ever trapped
If you just save my life
Run and tell the angels that
Everything's alright

Chorus:
        B5                    C#5
Now I'm looking to the sky to save me
B5
Looking for a sign of life
B5                      C#5
Looking for something to help me 
         B5
Burn out bright

B5                         C#5
I'm looking for a complication
B5
Looking 'cause I'm tired of trying
G5                A5
Make my way back home
                B5
When I learn to fly

Bridge:
 G5         A5                  E5
Only me, I can't quite make it alone
G5                A5         B5
Try to make this life I own, fly

Chorus:
        B5                    C#5
Now I'm looking to the sky to save me
B5
Looking for a sign of life
B5                      C#5
Looking for something to help me 
         B5
Burn out bright

B5                         C#5
I'm looking for a complication
B5
Looking 'cause I'm tired of trying
G5                A5
Make my way back home
                B5
When I learn to fly

Outro:
E|-----------|
B|-----------|
G|--4--4--6--|
D|--4--2--4--|
A|--2--------|
E|-----------|

Комментарий автора:

    E A D G B E
B5  0 2 4 4 0 0
C#5 0 4 6 6 0 0 
G5  3 5 5 0 0 0 
A5  5 7 7 0 0 0 
E5  0 2 2 0 0 0 
 
 

Видео