Foo Fighters - The One, аккорды

Прокрутка
Тональность
Шрифт
100
|--------------------------------------
|--------------------------------------
|----------------------------------7-8-
|-7/9-9-9-9--7/9-9-9-9--7/9-9-9-9--7-8-
|-7/9-9-9-9--7/9-9-9-9--7/9-9-9-9--5-6-
|-5/7-7-7-7--5/7-7-7-7--5/7-7-7-7------   x3

|--------------------------------------
|--------------------------------------
|----------------------------------8-7-
|-7/9-9-9-9--7/9-9-9-9--7/9-9-9-9--8-7-
|-7/9-9-9-9--7/9-9-9-9--7/9-9-9-9--6-5-
|-5/7-7-7-7--5/7-7-7-7--5/7-7-7-7------

if anyone knows the rest, please mail it to me at im_starting_2_like_th@barmaid.co.uk