Запрещают песни Цоя, Агата Кристи, Наутилус Помпилиус, Зиверт
Отвечаем в отдельной теме

Fun_mode - Про орков, аккорды

Прокрутка
Тональность
Шрифт
100
Главная мелодия вступления и припева
1)-----------------
2)-----------------
3)-----------------
4)-5-4-5-7-9--5-10-
5)-----------------
6)-----------------

Мелодия куплета:
1)--------------------
2)--------------------
3)--7-7--7-7----------
4)--------------------
5)------------8-8--8-8
6)---------------------

Мелодия перехода с припева на куплет
1)--------------------------
2)--------------------------
3)--------------------------
4)-----7-8--9-7-6-5-9-7-6-5-
5)-0-0----------------------
6)--------------------------
(она повторяется 2 раза!)

Аккорды для ритм-гитары:
Dm
Я родился, подрос, ну а дальше война
F
Не одна и не две – в общем-то до хрена
Dm
Я бы точно сказал, но застали врасплох
F
Считать я умею только до трёх
Dm
Я коричневый был, слушал предков, Нер’зула
F
По пизде всё пошло и планета вдруг сдулась
Dm
Напоили отстоем и открыли портал
F
Моя ринулся в бой – как Гул’дан приказал
Dm
Моя крушить, моя ломать
F
Моя всегда хотеть пожрать
Bb
Моя всегда служить вождю
Gm
Сейчас вам бошки проломлю
Dm
Моя не знать любви тепла
F
Моя всегда хотеть война
Bb
Всегда заточен мой топор
Gm
Лок’тар огар, мы все помрём!


Моя ярость сильна – я в бою словно царь
Правда правлю недолго – ведь по факту я днарь
Я махаю дубиной, лок’тар огар, все дела
Но как часто бывает – лицо встречает земля
Я охотник прекрасный, зверюшки любят меня
Ну а как не любить – иначе будет пизда
В общем страшный, зелёный и может чуть туповат
Зато как чётко меняю я Defensive Stance на Combat!

Моя крушить, моя ломать
Моя всегда хотеть пожрать
Моя всегда служить вождю
Сейчас вам бошки проломлю
Моя не знать любви тепла
Моя всегда хотеть война
Всегда заточен мой топор
Лок’тар огар, мы все помрём! 

Комментарий автора:

Бой лучше использовать прямой(просто вниз) либо восьмерку
Лучше играть на двух гитарах!!! 
 
 

Видео