Gg Allin - Bite it You Scum, аккорды

Прокрутка
Тональность
Шрифт
100
     A                  F         C    G
e|----------------------------------------------|
B|----------------------------------------------|
G|--------------------------------5-5-----------|
D|---7-7--7-7-7-7--7-7--3-3--3-3--5-5--5-5------|
A|---7-7--7-7-7-7--7-7--3-3--3-3--3-3--5-5------|
e|---5-5--5-5-5-5--5-5--1-1--1-1-------3-3------|

A                           F C G  
Well you want me to kiss your ass!
A                           F C G  
Well bend over, buddy, here comes my foot!
A                           F C G  
I don't need your cry ass shit!
A                           F C G  
Temper's rising, take a fit! - Fuck you!!!

A            F C G
Bite it you scum!
A            F C G
Bite it you scum!
A            F C G
Bite it you scum!
A            F C G
Bite it you scum! 

A                         F C G  
Well you want me to contribute!
A                      F C G  
All I got is blood for you!
A                        F C G  
All you want is more and more!
A                           F C G  
Gluttony, you pig you whore! - Fuck you!!!

A            F C G
Bite it you scum!
A            F C G
Bite it you scum!
A            F C G
Bite it you scum!
A            F C G
Bite it you scum!

Solo:
e|------------------------------------------------------------------|
B|------------------------------------------------------------------|
G|--14-12-----14-12-----14-12----14-12--14--14--14--14---12--12--12-|
D|--------14--------14--------14----------14--14--14--14---14--14---|
A|------------------------------------------------------------------|
E|------------------------------------------------------------------|

e|-----------------------------------------------------------|
B|------------------------------12--13--15--15--15---13--13--|
G|--14--14--14--12--12--12--14------------14--14-------------|
D|----14--14------14--14------14--14-------------------------|
A|-----------------------------------------------------------|
E|-----------------------------------------------------------|

e|-----------12----12--13-12-13-15-13-15-17-15-17-19-17-19-(21)-22-21-22-21-|
B|--15-13-15----15----------------------------------------------------------|
G|--------------------------------------------------------------------------|
D|--------------------------------------------------------------------------|
A|--------------------------------------------------------------------------|
E|--------------------------------------------------------------------------|

A                         F C G  
One day when your end is near!
A                         F C G  
I'll be laughing at your fear!
A                           F C G  
When you're gone there'll be no one!
A                           F C G  
Who'll be fucking up my fun? No one! - Fuck you!!!

A            F C G
Bite it you scum!
A            F C G
Bite it you scum!
A            F C G
Bite it you scum!
A            F C G
Bite it you scum!

A            F C G
Bite it, bite it, bite it, bite it
A            F C G
Bite it, bite it, bite it, bite it
A            F C G
Bite it, bite it, bite it!
A            F C G
Bite it you scum fucking sucking whore!
 
 
Свернуть Распечатать

Видео