Глад Валакас - Я Енотик-полоскун, аккорды

Прокрутка
Тональность
Шрифт
100
Куплет 1:
Am	   F
Я старая няшка,
Dm            E 
Пожилая я стесняшка,
Am          F
Я чёрные чулочки,
Dm                E
Я - старенький енотик.
Am             F
Я няшка, я стесняшка,
Dm                E
Я пожилой ходячий замок,
Am    F
Я - тян,
   Dm          E
Я хикка, я стесняшка,
     Am           F
Я улыбашка, я цап-царапка,
Dm                           E
У меня нет лапок, у меня цап-царапка.

Припев:
              Am	                   
Я енотик-полоскун,
Am               F        
Поласкаю свой писюн.
F             Dm     
Я енотик-полоскун,
Dm               E   
Поласкаю свой писюн.
E             Am         
Я енотик-полоскун,
Am               F     
Поласкаю свой писюн.
F             Dm         
Я енотик-полоскун,
                 E    
Поласкаю свой писюн.

Куплет 2:
Am        F
Я старая няшка,
Dm          E
Пожилая улыбашка.
       Am                  F
Я цап-царапка, я пушистая лапка.
          Dm          E
На моем лице три полосочки.
   Am          F 
Я няша, я стесняша.
    Dm        E
Я тяночка, я кун.
    Am          F
Я улыбашка, я няффка.
     Dm       E
Я старенький енот.
Am         F
У меня нет лап,
Dm          E
У меня цап-царап.
Am          F
Я пожилой шалунишка,
       Dm          E
Я стесняшка, я улыбашка.

Припев:
              Am	                   
Я енотик-полоскун,
Am               F        
Поласкаю свой писюн.
F             Dm     
Я енотик-полоскун,
Dm               E   
Поласкаю свой писюн.
E             Am         
Я енотик-полоскун,
Am               F     
Поласкаю свой писюн.
F             Dm         
Я енотик-полоскун,
Dm               E    
Поласкаю свой писюн.

Куплет 3: (бой)
Am        F
Я старая няшка,
Dm             E
Пожилая я стесняшка,
Am              F
Я тяночка, я улыбашка,
Dm          E
Я черные чулочки,
          Am                    F
Я люблю аниме. Я люблю смотреть аниме,
       Dm     E
А по ночам я смотрю хентай.
Am     F
Я стесняшка,
   Dm               E
Я старая пушистая няшка.
E
Я енотик...

Припев:
Am          
Я енотик-полоскун,
F
Поласкаю свой писюн.
Dm        
Я енотик-полоскун,
E     
Поласкаю свой...
E
Я енотик...

Проигрыш: Am F Dm E

            E
Я пожилая няшка.

Комментарий автора:

Оригинал играется с каподастром на первом ладу.

Перебор:
   Am                       F                       
e|-------------0----------|-------------1----------|
B|-------1-----------1----|-------1-----------1----|
G|----2-----2-----2-----2-|----2-----2-----2-----2-|
D|------------------------|------------------------|
A|-0----------------------|-3----------------------|
E|------------------------|------------------------|

   Dm                       E
e|-------------1----------|-------------0----------|
B|-------3-----------3----|-------0-----------0----|
G|----2-----2-----2-----2-|----1-----1-----1-----1-|
D|-0----------------------|------------------------|
A|------------------------|-2----------------------|
E|------------------------|------------------------|

Бой в припеве и третьем куплете: ↓×↑↑×↑
 
 
Свернуть Распечатать

Видео