Глеб Самойлоff & the Matrixx - Москва-река, аккорды

Прокрутка
Тональность
Шрифт
100
Вступление: G Bm D F#m              

Проигрыш:
2)---------------------------------3-----3------2-----2--
3)-4---7--4---7--4---7--4---7--2-----2------2-----2------
4)---5------5------4------4------4-----4------4-----4----

Куплет:
G
Эта зима уже надоела
   Bm
С ума свела, с ума свела
     D       
Даже если плюс
D
Душа окоченела
   F#m
И нет тепла и нет тепла
G              
Люди глядят как самоубийцы
  Bm
Какой там к черту, Новый год!?
  D
И нет чудес и нечего делать
  F#m
И если бы не так заледенела

Припев:
    G              Bm
Москва - река, Москва - река
D               F#m
Сердце успокоит на века!
    G              Bm
Москва - река, Москва - река
D               F#m
Сердце успокоит на века!
    G              Bm      D F#m  
Москва - река, Москва - река
    G              Bm      D F#m
Москва - река, Москва - река

Куплет:
G
Это лето серого цвета
 Bm
Море есть, но нет мечты
D
Солнце льётся на человека
  Bm
Всё - мертво, все - мертвы
 D          
Делают вид, что всё не достало
  F#m
И если бы так не воняла

Припев:
    G              Bm
Москва - река, Москва - река
D               F#m
Сердце успокоит на века!
    G              Bm
Москва - река, Москва - река
D               F#m
Сердце успокоит на века!
    G              Bm      D F#m  
Москва - река, Москва - река
    G              Bm      D F#m
Москва - река, Москва - река

Проигрыш:
2)---------------------------------3-----3------2-----2--
3)-4---7--4---7--4---7--4---7--2-----2------2-----2------
4)---5------5------4------4------4-----4------4-----4----

Припев:
    G              Bm
Москва - река, Москва - река
D               F#m
Сердце успокоит на века!
    G              Bm
Москва - река, Москва - река
D               F#m
Сердце успокоит на века!
    G              Bm      D F#m  
Москва - река, Москва - река
    G              Bm      D F#m
Москва - река, Москва - река

Комментарий автора:

Перебор к куплетам:1)-------х----------х---
                   2)-----х---х------х---х-
                   3)---х----------х-------
                   4)-х----------х---------
 
 
Свернуть Распечатать

Видео