Глеб Самойлоff & the Matrixx - Романтика, аккорды

Прокрутка
Тональность
Шрифт
100
Вступления: x4
3)-0---
4)-4-4-
5)-2---
6)-----

1 Куплет: под табы
2)---------------------0----------
3)--0------0-0-0-0-0--4--4-0-0-0--
4)-4-4--4-4-4-4-4-4-4-4---4-4-4-4-
5)2--2-0-0-0-0-0---------0--------
6)--------------3----3------------

Романтика умирала долго 
В агонии, корчах и муках. 
За ней через стекло наблюдали 
Люди в белых халатах. 
Зеркальные стекла подземных 
Лабораторий научных 
Были залиты кровью, 
Зато глушили звуки. 

Припев:
Bm A
А зря, ее крик был прекрасен, 
G Em
Как лучшая из песен 
Bm A
Которой весь мир тесен, 
G Em
С которой и смысл ясен. 
Bm A
Зря, ее крик был прекрасен, 
G Em
Как лучшая из песен, 
Bm A
С которой и смысл ясен, 
G Em
Которой весь мир тесен. 

2 Куплет: 
Bm A
От шока завис компьютер,
G Em
От крови замкнуло контакты, 
Bm A
И люди в белых халатах 
G Em
Забыли реальности факты. 

Дальше куплет под табы:
2)---------------------0----------
3)--0------0-0-0-0-0--4--4-0-0-0--
4)-4-4--4-4-4-4-4-4-4-4---4-4-4-4-
5)2--2-0-0-0-0-0---------0--------
6)--------------3----3------------

Зеркальные стекла дрожали, 
Вибрировали от боли, 
Но так и не пропускали 
Звук в лабораторию. 

Bm A
А зря, ее крик был прекрасен, 
G Em
Как лучшая из песен, 
Bm A
Которой весь мир тесен, 
G Em
С которой и смысл ясен. 
Bm A
Зря, ее крик был прекрасен, 
G Em
Как лучшая из песен, 
Bm A
Которой весь мир тесен, 
G Em
С которой и смысл ясен. Зря, я, я, я….

Комментарий автора:

Припев играть аккордами: 
Bm A G (Можно зажать в виде баррэ) Em

На словах: Зеркальные стекла дрожали
Играть на табах.
 
 
Свернуть Распечатать

Видео