Гражданская Оборона - Жека уже в Гамбурге, аккорды

Прокрутка
Тональность
Шрифт
100
Основная тема:
G F# Bm F#
E|-------------------------------------------------------------|
B|-------------------------------------------------------------|
G|-------------------------------------------------------------|
D|-------2-4-4-2-----------------2-2-5-2-4-4-2-5-2-------------|
A|-2-2-5---------5-2-2-2-5-2h0-2-------------------2-2-5-2h0-2-|
E|-------------------------------------------------------------|

C
E|-------------------------------------|
B|--------6-8---6------------6-8-10-8--|
G|--5-5-8---------8-5--5-5-8-----------|
D|-------------------------------------|
A|-------------------------------------|
E|-------------------------------------|
 
 

Видео