Гражданская Оборона - Песня о китайском народном добровольце, аккорды

Прокрутка
Тональность
Шрифт
100
       A                    C#m
Через горы, по травам и пескам
      D         E                A
Мимо тихих степных маньчжурских сел
   A                C#m
К водам синей речки Амноккан
F#m  D         E   A
Юный доброволец шел 
F#m  D         E   A
Юный доброволец шел 
F#m  D         E   A
Юный доброволец шел 

       A                    C#m
К нам он шел тот китаец молодой
      D         E                A
Шел наш брат, чтоб в сраженьи нам помочь
   A                C#m
Чтоб помочь нам справиться с бедой
F#m  D         E   A
Гнать американцев прочь.

       A             C#m
Слався наш отважный брат
      D         E     A
Мы не забудем подвиг твой
   A                C#m
Слава-слава отважным добровольцам
F#m  D         E   A
Слава нашей дружбе боевой.

Соляк:
e-------------------------^9-9-9-10-10-9-9-----------------------|
B-------9-^10-10-12-10-12------------------12-12-10-10-12-12-~10-| 
G--9-11----------------------------------------------------------|
D----------------------------------------------------------------|
A----------------------------------------------------------------|
E----------------------------------------------------------------|

e-14-12-10-12-10-9----9-9----~9-10-9----------------------|
B------------------12-----12---------12-10-10-9-^10-------| 
G---------------------------------------------------11-11-|
D---------------------------------------------------------|
A---------------------------------------------------------|
E---------------------------------------------------------|

e-10-9----------------------|-10-9----------------|
B------12-10-10-9-^10-------|------12-10-10-9-~10-|
G----------10-11------------|---------------------|
D---------------------------|---------------------|
A---------------------------|---------------------|
E---------------------------|---------------------|

       A                    C#m
Через горы, по травам и пескам
      D         E               A
Мимо тихих степных манчжурских сел
   A                C#m
К водам синей речки Амнокан
F#m  D         E  A
Юный доброволец шел 
F#m  D         E  A
Юный доброволец шел
F#m  D         E  A
Юный доброволец шел

Комментарий автора:

*********************
*  ´ ^ ´ == band    *
*  ´ ~ ´ == vibrato *
*********************
 
 

Видео