Гражданская Оборона - Эй, брат любер, аккорды

Прокрутка
Тональность
Шрифт
100
Интро: Em G F# A
       Em G F# G A

Интро(Бас):
6|-0-3-2-3-5

6|-0-0-0-3-3-3-2-2-3-3-5-5-5-5

Соло:
1|-0-3-0-5-0-3-0-2-0-3-0-5-0-5-5-5

Em G F# A                  Em G F# G A
Мы не любим загадывать загадок
Em G F# A                  Em G F# G A
От этих загадок один беспорядок
Em G F# A                 Em G F# G A
И если кто-то одет не по форме
Em G F# A                  Em G F# G A
Бей его по роже и всё будет в норме

Em G F# A    Em G F# G A
Хэй, брат любер,
Em G F# A    Em G F# G A
Где твой кастет!?

Em G F# A                  Em G F# G A
Уж мы то знаем что нужно народу
Em G F# A                  Em G F# G A
Ишь, пидорасы, почуяли свободу
Em G F# A                  Em G F# G A
А ведь было же время в старухе Европе -
Em G F# A               Em G F# G A
Всех анархистов били по жопе

Em G F# A    Em G F# G A
Хэй, брат любер,
Em G F# A    Em G F# G A
Где твой кастет!?

Em G F# A                  Em G F# G A
Мы родились и выросли в Люберцах
Em G F# A                  Em G F# G A
В центре грубой физической силы
Em G F# A                  Em G F# G A
И мы верим: мечта наша сбудется — 
Em G F# A                  Em G F# G A
Станут Люберцы центром России

Em G F# A                  Em G F# G A
Любер, любер, любер юбер алес!
Em G F# A                  Em G F# G A
Любер, любер, любер юбер алес!
Em G F# A                  Em G F# G A
Любер, любер, любер юбер алес!
Em G F# A                  Em G F# G A
Любер, любер, любер юбер алес!

Em G F# A    Em G F# G A
Хэй, брат любер,
Em G F# A    Em G F# G A
Где твой кастет!?

Комментарий автора:

Используются 4,5,6 струна

Аккорд Em:
1)-------------
2)-------------
3)-------------
4)-2-----------
5)-2-----------
6)-0-----------

Аккорд G
1)-------------
2)-------------
3)-------------
4)-5-----------
5)-5-----------
6)-3-----------
 
Аккорд F#
1)-------------
2)-------------
3)-------------
4)-4-----------
5)-4-----------
6)-2-----------

Аккорд A
1)-------------
2)-------------
3)-------------
4)-8-----------
5)-8-----------
6)-6-----------
 
 
Свернуть Распечатать

Видео