Гражданская Оборона - Мама бля, аккорды

Прокрутка
Тональность
Шрифт
100
Соло:
3)---12---11---9---12---11---9---12---11---9---12---11---9---12---11---9------
4)--------------------------------------------------------------------------4-

3)---12---11---9---12---11---9---12---11---9---12---11---9---12---11---9------
4)--------------------------------------------------------------------------4-

Бас:

Куплет:
3)---7---5------------------------------
4)--------------7---5---3-5---3---0---3-

3)---7---5------------------------------
4)--------------7---5---3-5---3---5---7-

Припев:
3)---7-7-7-5-7----7-7-7-5-7-------------------------------------
4)---------------------------------------7-7-7-5-7----7-7-7-5-7-

3)----------------------------------------------------
4)---5-5-5-3-5----5-5-5-3-5----7-7-7-5-7----7-7-7-5-7-
 
 
Свернуть Распечатать

Видео