Гражданская Оборона - Дети спят, аккорды

Прокрутка
Тональность
Шрифт
100
Intro:
6)---------9--8--7
5)6-8-10----------  x2
4)---------11-10-9
3)8-10-12--------- 

6)4-4-4-----------------------------6-4-------6-4-
5)-------4-4---6-6--4-4--6-6----3-3------3-3------
4)--6-6------------------------------8-6------8-6-
3)-------6-6---8-8--6-6--8-8----5-5------5-5------
2)-----------6-8-8-----6-8-8--5-5-5------5-5------


G#
Дети спят словно дождь
G#
Дети спят словно смерть
G#       C#
Они видят бред
G#       C#
Они видят свет
G#       C#
Они видят боль 
G#       C#
Они видят нас

Комментарий автора:

Аккорды играются перебором 1323 (но лучше просто задевать верхние струны в любом порядке)
 
 
Свернуть Распечатать

Видео