Гражданская Оборона - Старость - не радость, аккорды

Прокрутка
Тональность
Шрифт
100
Dm                   Am
Старый дедушка тихо плачет
Dm                 Am
Очень кушать ему охота
C#m                     G#m
Крысы съели всю пищу в доме
C#m                G#m
Даже корочки нету хлеба
Cm                    Gm
Холод рвется в его каморку
Cm                     Gm
Смерть стоит у его постели.
        
Dm                   Am
Старый дедушка тихо плачет
Dm                   Am
Нет родных, чтоб его утешить
C#m                   G#m
Дети умерли все в блокаду
C#m                 G#m
Дети умерли от болезней
Cm                    Gm
Холод рвется в его каморку
Cm                    Gm
Смерть стоит у его постели.

Комментарий автора:

Партия для второй гитары:
==================================================|
1|-5--------5----------------5---5--|             |
2|--6-5-------6-5----------5---5----| x2 0:00-0:12|
3|------7---------7-----7-----------|             |
==================================================|
1|-5--------5----------------5---5--|             |
2|--6-5-------6-5----------5---5----| x2 0:50-1:02|
3|------7---------7-----7-----------|             |
==================================================|
1|-5--------5----------------5---5--|             |
2|--6-5-------6-5----------5---5----| x2 1:40-1:52|
3|------7---------7-----7-----------|             |
==================================================|
1|-------5--------5-----5-6---6-----|             |
2|---6-5------6-5-----------5---5---| x2 1:52-2:04|
3|-7--------7-----------------------|             |
==================================================|
1|-------4--------4-----4-5---5-----|             |
2|---5-4------5-4-----------4---4---| x2 2:05-2:17|
3|-6--------6-----------------------|             |
==================================================|
1|-------3--------3-----3-4---4-----|             |
2|---4-3------4-3-----------3---3---| x2 2:18-2:30|
3|-5--------5-----------------------|             |
==================================================|
1|-5--------5----------------5---5--|             |
2|--6-5-------6-5----------5---5----| x2 2:30-2:42|
3|------7---------7-----7-----------|             |
==================================================|
 
 
Свернуть Распечатать

Видео