Гражданская Оборона - Тоталитаризм, аккорды

Прокрутка
Тональность
Шрифт
100
Intro: Gm D#(VI) Cm D }x2

Bass:
3|---653-35535-
4|-33---6------

Gm D#(VI) Cm D
Красный сигнал
Gm D#(VI) Cm D
Условный рефлекс
Gm D#(VI) Cm D
Тоталитаризм
Gm D#(VI) Cm D
Тоталитаризм
  A#(VI)  C(VIII)                
Собаки Павлова
            F      A(V)                                   
          Ссходят слюной

Проигрыш: Gm D#(VI) Cm D }x2    
          
Gm D#(VI) Cm D
Красное время
Gm D#(VI) Cm D
Тотальный синдром
Gm D#(VI) Cm D
Тоталитаризм
Gm D#(VI) Cm D
Тоталитаризм
  A#(VI)  C(VIII)  
Мы все выделяем 
          F      A(V)    
        Желудочный сок

Проигрыш: Gm D#(VI) Cm D }x2    

Gm D#(VI) Cm D
Красные дни
Gm D#(VI) Cm D
Тотальное время
Gm D#(VI) Cm D
Тоталитаризм
Gm D#(VI) Cm D
Тоталитаризм
  A#(VI)  C(VIII)
Мы все одобряем 
            F      A(V)  
        Тотальный рефлекс

Проигрыш: Gm D#(VI) Cm D }x2

Соло: №1 и №2 одновременно  

Gm D#(VI) Cm D
Красные мы
Gm D#(VI) Cm D
Тотальные мы
Gm D#(VI) Cm D
Тоталитаризм
Gm D#(VI) Cm D
Тоталитаризм
  A#(VI)  C(VIII) 
Мы все одобряем 
         F      A(V)  
        Тоталитаризм

Проигрыш: Gm D#(VI) Cm D

  A#(VI)  C(VIII) 
Мы все одобряем 
         F      A(V)  
        Тоталитаризм

Комментарий автора:

Соло №1:
1)3-3--3-5-6-8-10-10-10-10-8-6-6-6-8-6-5-33-5-6-8----------
2)-----------------------------------------------6666-4-3-4
3)---------------10-10-10-10-------------------------------

1)-66-5-333-5-6-8-10-10-10-10-10-10-10-8-66-8-8-8-5-6-5-33-3-5-6-5-6-8-10-10-10-10-10-8-6-5-3--3-
2)-------------------------------------------8-8-8-----------------------------------------------
3)------------------10-10-10-10-10---------------------------------------------------------------

Соло №2:
3)3--333333-55----------------3333333-5-3-2-3-5--------------12-12-12
4)------------3-55-3-55-3-55-5-----------------3-55-3-55-3-55--------
 
 
Свернуть Распечатать

Видео