Гражданская Оборона - Зря вы это всё, аккорды

Прокрутка
Тональность
Шрифт
100
Вступление: G# G(III) C(VIII) A#(VI) F
            G# G(III) C(III) A#(VI) F G# G(III)

Cm(VIII)                     D#(XI)
Что бы ни случилось — всё к лучшему.
Fm                 G(X) Cm(VIII)
Мёртвые пчёлы оглушительно гудят.
Cm(VIII)                  D#(XI)
Скошенные травы встают стеной.
Fm                 G(X) Cm(VIII)
Съеденные птички упоительно поют.

            D#(XI)                 A#m(VI) G# 
         О том как хорошо смеётся тот, кто смеётся 
                                                   A#(VI)
                                               последним.
            D#(XI)                 A#m(VI) G#  
          О том как хорошо смеётся тот, кто смеётся 
                                                   A#(VI)
                                               последним.
Cm(VIII)                     D#(XI)  
Что бы ни случилось — всё к лучшему
Fm                 G(X) Cm(VIII)
Срубленные головы стремительно умнеют.
Cm(VIII)                     D#(XI)
Реки подо льдом кипят светло и зло.
Fm                 G(X) Cm(VIII)
Выбитые зубы ослепительно скрипят.

            D#(XI)                 A#m(VI) G#  
         О том как хорошо смеётся тот, кто смеётся 
                                                   A#(VI)
                                               последним.
            D#(XI)                 A#m(VI) G# 
         О том как хорошо смеётся тот, кто смеётся 
                                                   A#(VI)
                                               последним.
Проигрыш: G# G(III) C(VIII) A#(VI) F
          G# G(III) C(III) A#(VI) F G# G(III)

Cm(VIII)                     D#(XI)
Что бы ни случилось — всё к лучшему.
Fm                 G(X) Cm(VIII)
Вырванные корни прорастают в небо.
Cm(VIII)                 D#(XI)
Пойманные рыбы ныряют ввысь.
Fm                 G(X) Cm(VIII)
Срубленные головы пронзительно гудят.

            D#(XI)                 A#m(VI) G# 
         О том как хорошо смеётся тот, кто смеётся 
                                                   A#(VI)
                                               последним.
            D#(XI)                 A#m(VI) G# 
         О том как хорошо смеётся тот, кто смеётся 
                                                   A#(VI)
                                               последним.
            D#(XI)                 A#m(VI) G# 
         О том как хорошо смеётся тот, кто смеётся 
                                                   A#(VI)
                                               последним.
            D#(XI)                 A#m(VI) G#
         О том как хорошо смеётся тот, кто смеётся 
                                                   A#(VI)
                                               последним.

Комментарий автора:

Бой:начало - перебор, затем удары вниз
Басс:[спасибо "Musihin Music"]

Вступление:
G|----------------------------------------------------|
D|--------------------------------------6--5----------|
A|--------------3--3--3--3--6--6--6--6--------6--3----|
E|--4--4--4--4----------------------------------------|

----------------------------------------------------|
--------------------------------------3-------------|
--------------2--2--2--2--5--5--5--5-----5--2-------|
--3--3--3--3-----------------------------------3----|

----------------------------------------------------|
----------------------------------------------------|
--3--3--3--3--3--5--6--5--1--1--1--1--1--3--5--6----|
----------------------------------------------------|

--------------------------------------2-------------|
--------------------------3--3--3--3-----3----------|
--------------3--3--3--3--------------------3--0----|
--1--1--1--1----------------------------------------|

----------------------------------------------------|
--------------------------------------6--5----------|
--------------3--3--3--3--6--6--6--6--------6--3----|
--4--4--4--4----------------------------------------|

----------------------------------------------------|
--------------------------------------3-------------|
--------------2--2--2--2--5--5--5--5-----5--2-------|
--3--3--3--3-----------------------------------3----|

----------------------------------------------------|
----------------------------------------------------|
--3--3--3--3--3--5--6--5--1--1--1--1--1--3--5--6----|
----------------------------------------------------|

--------------------------------------2-------------|
--------------------------3--3--3--3-----3----------|
--------------3--3--3--3--------------------3--0----|
--1--1--1--1----------------------------------------|

----------------------------------------------------|
--------------------------------------5--5--5--5----|
--------------------------3--3--3--3----------------|
--4--4--4--4--4--4--4--4----------------------------|

Основная часть:
----------------------------------------------------|
-----------3--5--5--3-----------5--6--8--8--6--5----|
--3--3--6--------------5--6--6----------------------|
----------------------------------------------------|

--------------------1--1--------4-------------------|
--------------3--3-----------5-----5--------3--5----|
--------3--3--------------5-----------3--6----------|
--1--1----------------------------------------------|

----------------------------------------------------|
-----------3--5--5--3-----------5--6--8--8--6--5----|
--3--3--6--------------5--6--6----------------------|
----------------------------------------------------|

--------------------1--1--------4-------------------|
--------------3--3-----------5-----5--------3--5----|
--------3--3--------------5-----------3--6----------|
--1--1----------------------------------------------|

Припев:
----------------------------------------------------|
--------------------------8--8--8--8--8--8--8--8----|
--6--6--6--6--6--6--6--6----------------------------|
----------------------------------------------------|

----------------------------------------------------|
----------------------------------------------------|
--------------------------------5--6--8--8--5-------|
--4--4--4--4--4--4--4--4--6--6-----------------6----|

----------------------------------------------------|
----------------------------------------------------|
--6--6--6--6--6--6--6--6----------------------------|
--------------------------6--6--6--6--6--6--6--6----|

----------------------------------------------------|
--6--6--6--6--6--6--6--6--5--6--3-----------3--5----|
-----------------------------------6--5--6----------|
----------------------------------------------------|

Основа:
----------------------------------------------------|
-----------3--5--5--3-----------5--6--8--8--6--5----|
--3--3--6--------------5--6--6----------------------|
----------------------------------------------------|

--------------------1--1--------4-------------------|
--------------3--3-----------5-----5--------3--5----|
--------3--3--------------5-----------3--6----------|
--1--1----------------------------------------------|

----------------------------------------------------|
-----------3--5--5--3-----------5--6--8--8--6--5----|
--3--3--6--------------5--6--6----------------------|
----------------------------------------------------|

--------------------1--1--------4-------------------|
--------------3--3-----------5-----5--------3--5----|
--------3--3--------------5-----------3--6----------|
--1--1----------------------------------------------|

----------------------------------------------------|
--------------------------8--8--8--8--8--8--8--8----|
--6--6--6--6--6--6--6--6----------------------------|
----------------------------------------------------|

----------------------------------------------------|
----------------------------------------------------|
--------------------------------5--6--8--8--5-------|
--4--4--4--4--4--4--4--4--6--6-----------------6----|

Припев#2:
----------------------------------------------------|
----------------------------------------------------|
--6--6--6--6--6--6--6--6----------------------------|
--------------------------6--6--6--6--6--6--6--6----|

----------------------------------------------------|
--6--6--6--6--6--6--6--6--5--6--3-----------3--5----|
-----------------------------------6--5--6----------|
----------------------------------------------------|

----------------------------------------------------|
--------------------------------------6--5----------|
--------------3--3--3--3--6--6--6--6--------6--3----|
--4--4--4--4----------------------------------------|

----------------------------------------------------|
--------------------------------------3-------------|
--------------2--2--2--2--5--5--5--5-----5--2-------|
--3--3--3--3-----------------------------------3----|

----------------------------------------------------|
----------------------------------------------------|
--3--3--3--3--3--5--6--5--1--1--1--1--1--3--5--6----|
----------------------------------------------------|

--------------------------------------2-------------|
--------------------------3--3--3--3-----3----------|
--------------3--3--3--3--------------------3--0----|
--1--1--1--1----------------------------------------|

----------------------------------------------------|
--------------------------------------6--5----------|
--------------3--3--3--3--6--6--6--6--------6--3----|
--4--4--4--4----------------------------------------|

----------------------------------------------------|
--------------------------------------3-------------|
--------------2--2--2--2--5--5--5--5-----5--2-------|
--3--3--3--3-----------------------------------3----|

----------------------------------------------------|
----------------------------------------------------|
--3--3--3--3--3--5--6--5--1--1--1--1--1--3--5--6----|
----------------------------------------------------|

--------------------------------------2-------------|
--------------------------3--3--3--3-----3----------|
--------------3--3--3--3--------------------3--0----|
--1--1--1--1----------------------------------------|

----------------------------------------------------|
--------------------------------------6--5----------|
--------------3--3--3--3--6--6--6--6--------6--3----|
--4--4--4--4----------------------------------------|

----------------------------------------------------|
--------------------------------------3-------------|
--------------2--2--2--2--5--5--5--5-----5--2-------|
--3--3--3--3-----------------------------------3----|

----------------------------------------------------|
----------------------------------------------------|
--3--3--3--3--3--5--6--5--1--1--1--1--1--3--5--6----|
----------------------------------------------------|

--------------------------------------2-------------|
--------------------------3--3--3--3-----3----------|
--------------3--3--3--3--------------------3--0----|
--1--1--1--1----------------------------------------|

----------------------------------------------------|
--------------------------------------6--5----------|
--------------3--3--3--3--6--6--6--6--------6--3----|
--4--4--4--4----------------------------------------|

----------------------------------------------------|
--------------------------------------3-------------|
--------------2--2--2--2--5--5--5--5-----5--2-------|
--3--3--3--3-----------------------------------3----|

----------------------------------------------------|
----------------------------------------------------|
--3--3--3--3--3--5--6--5--1--1--1--1--1--3--5--6----|
----------------------------------------------------|

--------------------------------------2-------------|
--------------------------3--3--3--3-----3----------|
--------------3--3--3--3--------------------3--0----|
--1--1--1--1----------------------------------------|

----------------------------------------------------|
--------------------------------------5--5--5--5----|
--------------------------3--3--3--3----------------|
--4--4--4--4--4--4--4--4----------------------------|

Основа:
----------------------------------------------------|
-----------3--5--5--3-----------5--6--8--8--6--5----|
--3--3--6--------------5--6--6----------------------|
----------------------------------------------------|

--------------------1--1--------4-------------------|
--------------3--3-----------5-----5--------3--5----|
--------3--3--------------5-----------3--6----------|
--1--1----------------------------------------------|

----------------------------------------------------|
-----------3--5--5--3-----------5--6--8--8--6--5----|
--3--3--6--------------5--6--6----------------------|
----------------------------------------------------|

--------------------1--1--------4-------------------|
--------------3--3-----------5-----5--------3--5----|
--------3--3--------------5-----------3--6----------|
--1--1----------------------------------------------|

Припев#3:
----------------------------------------------------|
--------------------------8--8--8--8--8--8--8--8----|
--6--6--6--6--6--6--6--6----------------------------|
----------------------------------------------------|

----------------------------------------------------|
----------------------------------------------------|
--------------------------------5--6--8--8--5-------|
--4--4--4--4--4--4--4--4--6--6-----------------6----|

----------------------------------------------------|
----------------------------------------------------|
--6--6--6--6--6--6--6--6----------------------------|
--------------------------6--6--6--6--6--6--6--6----|

--------------------------10-10-10-10-10-10-7-------|
--6--6--6--6--6--6--6--6-----------------------8----|
----------------------------------------------------|
----------------------------------------------------|

--8--8--8--8--8--8--8--8----------------------------|
--------------------------8--8--8--8--8--8--8--6----|
----------------------------------------------------|
----------------------------------------------------|

----------------------------------------------------|
--6--6--6--6--6--6--6--6----------------------------|
--------------------------------5--6--8--8--5-------|
--------------------------6--6-----------------6----|

----------------------------------------------------|
----------------------------------------------------|
--6--6--6--6--6--6--6--6----------------------------|
--------------------------6--6--6--6--6--6--6--6----|

----------------------------------------------------||
--6--6--6--6--6--6--6--6--5--6--3-----------3--5----||
-----------------------------------6--5--6----------||
----------------------------------------------------||

Концовка:
---------------------------------------|
o--------------------------------------|
o3--------3--5--6--1--------3--5--6----|
---------------------------------------|

-----------------------------2----------|
--------------------3-----------3-------|
-----------3-----------------------3----|
--1-------------------------------------|

----------------------------------------|
-----------------------------6--5-------|
-----------3--------6--------------6----|
--4-------------------------------------|

---------------------------------------||
-----------------------------3--------o||
-----------2--------5-----------5--2--o||
--3------------------------------------||

----------------------------------------|
----------------------------------------|
--3--------3--5--6--1--------3--5--6----|
----------------------------------------|

-----------------------------2----------|
--------------------3-----------3-------|
-----------3-----------------------3----|
--1-------------------------------------|

----------------------------------------|-------||
-----------------------------6--5-------|-------||
-----------3--------6--------------6----|--2----||
--4-------------------------------------|-------||
 
 
Свернуть Распечатать

Видео