Гражданская Оборона - Самоотвод, аккорды новинка

Прокрутка
Тональность
Шрифт
100
Вступление:F#m Bm  A  C# (x4) + solo
 
F#m   Bm    A    C#
Маяковский видел сон
F#m   Bm    A    C#
В смутном поле зреет рис
F#m   Bm    A    C#
В хищной чаще зреет зверь
F#m   Bm    A    C#
Тише едешь — ярче спишь
     A              D(V)
     Под нейтральным небом
     A              D(V)
     Под нейтральным знаком 
         D(V)
         Самоотвод

F#m   Bm    A    C#
Маяковский видел сон
F#m   Bm    A    C#
Шаг за шагом — наутёк
F#m   Bm    A    C#
Кто разбудит на заре
F#m   Bm    A    C#
Кто поймает — кто поймёт
     A              D(V)
     Под нейтральным снегом
     A              D(V)
     Под нейтральным страхом 
         D(V)
         Самоотвод

F#m   Bm    A    C#
Маяковский жал курок
F#m   Bm    A    C#
Жёг окурок,лил струю
F#m   Bm    A    C#
Покатилось колесо 
F#m   Bm    A    C#
Вот и собран урожай
A              D(V)
 Под нейтральным небом
     A              D(V)
     Под нейтральным флагом 

         D(V)
         Самоотвод 

     

Комментарий автора:

solo:
e|-------------------------------------------------------------------------|
B|--7---7-5-------------7-9-10-10--9----7---7-5-------------7-9-10-10--9---|
G|----------7-6-7-------------------------------7-6-7----------------------|
D|-----------------7-----------------------------------7-------------------|
A|-------------------------------------------------------------------------|
E|-------------------------------------------------------------------------|
 
e|-------------------------------------------------------------------------|
B|--7---7-5-------------7-9-10-10--9----7---7-5-------------7-9-10-10--9---|
G|----------7-6-7-------------------------------7-6-7----------------------|
D|-----------------7-----------------------------------7-------------------|
A|-------------------------------------------------------------------------|
E|-------------------------------------------------------------------------|

Версия с альбома "Делай с нами, делай, как мы, делай лучше нас!", проекта "Враг Народа"
1988

 
 
Свернуть Распечатать

Видео