Гражданская Оборона - Родина, аккорды

Прокрутка
Тональность
Шрифт
100
Intro:

  G(III)   Am(V)     C(III)    D(V)
---3---------5-----------3-------5---------
-----3---------5-------5-----------7-------
-------0---------5---------5---------7-----    (x2)
-------------------------------------------
---------------------3---------5-----------
-3---------5-------------------------------

Solo:
-------------------------------------------------------------------------
-------------------------------------------------------------------------
-0---2-4--0------------------------2------0---2-4--0------5--5--4-0-2----  (x2)
-------------2------------2---0--4---4----------------2------------------
------------------3-2-3--------------------------------------------------
-------------------------------------------------------------------------


 G           Am         C        D
Вижу — поднимается с колен моя Родина
 G           Am         C        D
Вижу, как из пепла восстаёт моя Родина
 G           Am         C        D
Слышу, как поёт моя великая Родина
 G           Am         C        D
Снова поднимается с колен моя Родина.


 Em          C          D       G
Разгибает спину мой былинный народ
 Em          C          D      B
Раздвигает стены наша гневная мощь
Em          C            D      G
Солнышко зовёт нас за собой в поход
     Am                    C       D
На гибельную стужу, на кромешную ночь.


 G           Am         C        D
Вижу — поднимается с колен моя Родина
 G         Am        C        D
Яростно и гордо восстаёт моя Родина
 G          Am         C        D
Слышу, как поёт моя великая Родина
 G          Am        C        D
Снова поднимается с колен моя Родина.


Em          C          D       G
Сбрасывает цепи мой могучий народ
    Em              C          D    B
В сердцах светло и жарко полыхает заря
   Em        C            D       G
От нашего дыханья тает, плавится лед
     Am                  C      D
Под нашими ногами расцветает земля.


G           Am         C        D
Вижу — поднимается с колен моя Родина
G             Am        C        D
Вижу, как из пепла восстаёт моя Родина
G           Am         C        D
Слышу, как поёт моя Советская Родина
G           Am         C        D
Снова поднимается с колен моя Родина.


Em          C          D      G
Разгибает спину мой великий народ
Em           C          D      B
Раздвигает стены наша гневная мощь
Em          C          D        G
Солнышко зовёт нас за собой вперед
    Am                     C       D
На гибельную стужу, на кромешную ночь.

G           Am         C        D
Вижу — поднимается с колен моя Родина
G             Am       C        D
Вижу, как из пепла восстаёт моя Родина
G           Am         C        D
Жарко разгорается во мне моя Родина
G           Am         C        D
Слышу, как поёт моя Советская Родина.
 
 
Свернуть Распечатать

Видео